Song name
# A B C D E F G H I J K L M N O P Q R S T U V W X Y Z

Misc Soundtrack - Nausica Of The Valley Of The Wind - The Requiem tab

MusicXML Part
     Q    Q    E  E     Q    Q    Q       Q    Q    E  E     Q    Q    E  E
E||--3----3-------5--|--2----2---------|--7----7-------8--|--5----5----------|
B||--5----5----------|--0----0---------|------------------|--7----7----------|
G||--4----4----------|-----------------|--7----7----------|------------0--2--|
D||------------------|--0----0---------|--5----5----------|--0----0----------|
A||------------------|-----------------|------------------|------------------|
E||--3----3----------|-----------------|------------------|------------------|

  Q    Q    E  E     Q    Q    Q       Q    Q    E  E     Q    E  E  E  E
--3----3-------5--|--2----2---------|--7----7-------8--|--5----------------|
--0----0----------|--0----0---------|------------------|--7----------0-----|
------------------|-----------------|--7----7----------|----------------2--|
------------------|--0----0---------|--5----5----------|--0-------2--------|
------------------|-----------------|------------------|-------------------|
--0----0----------|-----------------|------------------|-------------------|

  Q    Q    E  E     Q    Q    E  E     E  E  E  E  E  E     E  E  E  Q    E
--3----3-------5--|--2----2----------|--0-----------------|-------------------|
--0----0----------|--0----0----------|--0-----------------|--------0-------1--|
------------------|------------------|--0-----------0-----|--2-----0-------2--|
------------------|--0----0-------0--|--2-----4-----2-----|--4----------------|
------------------|------------------|--3-----5-----------|--3----------------|
--0----0----------|------------------|-----3-----3-----3--|-----2-----2----2--|

  E  E  E  E  E  E     H        Q       E  E  E  E  E  E     Q    Q    Q
--------------------|----------------|--0-----------------|-----------------|
--3-----------0-----|----------------|--1-----------1-----|-------0----1----|
--2-----------0-----|--0--------0----|--0-----------2-----|--2---------2----|
--------0-----------|--2--------2----|--2-----------------|-----------------|
--2--3-----3--2--0--|--2-------------|--3-----------------|--3--------------|
--------------------|--0-------------|--0--2--3--2--0--2--|--1--------------|

  Q    Q    Q       Q    Q    Q       Q    Q    E  E     Q    Q    Q
-----------------|-----------------|------------------|-----------------|
--0----0---------|--3----1----0----|--1----1-------3--|--0----0---------|
--2---------2----|--1--------------|--2----2----------|--0----0---------|
-----------------|-----------------|--2----2----------|--2----2---------|
-----------------|-----------------|--0----0----------|-----------------|
--1--------------|--0--------------|--0---------------|--3----3---------|

  Q    Q    E  E     Q    Q    E  E     H.              Q    E  S S E  E  Q
--0----0-------1--|------------------|---------------|-----------------0-------|
--1----1----------|--3----3-------0--|---------------|-------1--0---0----------|
--0----0----------|--0----0----------|--2------------|--2----2----2------------|
------------------|------------------|--2------------|--2-----------------2----|
--3----3----------|--2----2----------|--0------------|--0----------------------|
------------------|------------------|---------------|-------------------------|

  Q    E  S S H           Q    E  S S E  E  E  E     S S S S E  E  H
-----------------------|-----------------0--------|-------------------------|
-------1--0------------|-------1--0---0-----------|--------0-1--0-----------|
--2----2----2-1--------|--2----2----2-------------|----0-2---------2--------|
--2-----------2--------|--2-----------------2--2--|--3----------------------|
--0--------------------|--0-----------------------|--0-------------0--------|
-----------------------|--------------------------|-------------3-----------|

  Q    E  S S E  E  Q       Q    E  S S Q    E  E     Q    E  S S E  E  E  E
-----------------0-------|-------------------------|-----------------0--------|
-------1--0---0----------|-------1--0--------------|-------1--0---0-----------|
--2----2----2------------|--2----2----2-1----------|--2----2----2-------------|
--2-----------------2----|--2-----------2-------2--|--2-----------------2--2--|
--0----------------------|--0----------------------|--0-----------------------|
-------------------------|-------------------------|--------------------------|

  S S E  E  E  Q    Q       E  E  E  E  S S S S Q
-------------------------|--0--0--0--0--1-0-0--------|
---------1-----0---------|--------------------3-3----|
----0-2-----2--1---------|--0-----0-----0-------0----|
--3------1-----2---------|---------------------------|
--0----------------------|--3-----3-----2-------2----|
--------------------0----|---------------------------|

  E  E  E  E  S S S S Q       E  E  E  S S E  E  Q       E  S S Q    Q    Q
--------------0------------|--------------------------|------------------------|
--3--3--3--3----3-3-1-1----|--1--1--1--0-1-3-----3----|--1--0------------------|
--0-----0-----0-------0----|--2-----2---------2-------|--0----2-0--------------|
---------------------------|--------------------------|-------------------2----|
--2-----2-----3-------3----|--------------------------|------------------------|
---------------------------|--1-----1------2-----2----|--3------3----3----3----|

  Q    Q    Q    Q       Q    E  S S E  E  Q       Q    E  S S H
-----------------0----|-----------------0-------|-----------------------|
--0--------------0----|--L----1--0---0----------|-------1--0------------|
----------------------|--2----2----2------------|--2----2----2-1--------|
--2--------------2----|--2-----------------2----|--2-----------2--------|
----------------------|--0----------------------|--0--------------------|
--4----4----4----4----|-------------------------|-----------------------|

  Q    E  S S E  E  E  E     S S S S E  E  H           W
-----------------0--------|-------------------------|-------------------||
-------1--0---0-----------|--------0-1--0-----------|-------------------||
--2----2----2-------------|----0-2---------2--------|--L----------------||
--2-----------------2--2--|--3-------------2--------|--L----------------||
--0-----------------------|--0-------------0--------|--L----------------||
--------------------------|-------------3-----------|-------------------||

Duration Legend
---------------
W - whole
H - half
Q - quarter
E - 8th
S - 16th
T - 32nd
X - 64th
. - note dotted
|-n-|  - n-tuplets

http://en.wikipedia.org/wiki/Joe_Hisaishi
Tap to rate this tab
# A B C D E F G H I J K L M N O P Q R S T U V W X Y Z