Song name
# A B C D E F G H I J K L M N O P Q R S T U V W X Y Z

Misc Soundtrack - Porco Rosso - Marco And Gina tab

    H        E  E  E  E     H        E  E  E  E     S S H.           E
E||-----------------2--0--|--2--------L--2--3--5--|--0-2-0---------------|
B||--------------0--------|-----------------------|----------------------|
G||-----------------------|-----------------------|-------------------2--|
D||-----------------------|--0--------L-----------|--2-------------------|
A||-----------------------|--2--------L-----------|--2-------------------|
E||-----------------------|--3--------L-----------|--3-------------------|

  H        E  T T E  T T E     H        E  T T E  T T E
--0--------0--L---5--L---0--|------------------0--L---2--|
----------------------------|--4--------4--L-------------|
----------------------------|--0-------------------------|
--2-------------------------|----------------------------|
--4-------------------------|--0-------------------------|
--2-------------------------|----------------------------|

  H        E  S. T E  E     H        S S S E  T S. S    H        E  E  E  E
--2--------L----------2--|--0--------0-2-0-----------|-----------------------|
--------------0----0-----|-----------------3--L-2----|--2--------L-----2--0--|
-------------------------|---------------------------|-----------------------|
--0--------L-------------|---------------------------|--------------4--------|
--2--------L-------------|--1------------------------|--4--------L-----------|
--0--------L-------------|--2------------------------|--2--------L-----------|

  H        E  E  E  E     Q.     S. T S. T S. T S. T S. T
--------------------0--|--2------2----2----3----0---------|
--2-----------2--3-----|--0--------------------------3----|
-----------------------|--0-------------------------------|
-----------------------|----------------------------------|
--4--------------------|----------------------------------|
--2--------------------|----------------------------------|

  H        E  S. T S. T S. T    Q.     S. T S. T S. T S. T S. T
--0--------L-----------------|--0------0----0----2--------------|
--2--------L-------2----3----|------------------------3----2----|
--2--------L--2--------------|--2-------------------------------|
-----------------------------|--4-------------------------------|
-----------------------------|----------------------------------|
-----------------------------|----------------------------------|

  Q    S. T S. T E.  T T S. T S. T    H        E  E  E  E
-----------------0---L-------------|--------------------0--|
--0----2----3------------2----0----|--2--------0--2--3-----|
-----------------0---L-------------|-----------------------|
--0--------------------------------|--4--------------------|
-----------------------------------|-----------------------|
-----------------------------------|-----------------------|

  E  E  E  E  S. T S. T E  S. T    E  S. T E  E  E  S. T E  S. T
--2--------2--2----3----0-------|--0-----------------------------|
--0------------------------3----|--2---------------------2--3----|
--0-----------------------------|--2----------------2------------|
-----0------------------0-------|------------------------2-------|
--------0--2--------------------|----------0--2--0---------------|
--3-----------------------------|--3--0--------------------------|

  E  S. T E  E  S. T S. T S. T S. T    E  E  E  E  Q    E  S. T
--0----------0--0----2--------------|--------------0------------|
--------------------------3----2----|--0-----2--3-------2--0----|
--2-------1--2----------------------|--------------0------------|
------------------------------------|--0--------0--0------------|
-----4------------------------------|--2-----4----------0-------|
--2---------------------------------|-----2---------------------|

  H        E  E  E  E     E  E  S. S. S E  E  E  E
-----------------------|----------------------------|
-----------------------|-------------------------0--|
--2--------L-----0--2--|--2--0--0-----0-------------|
--4-----------4--------|-----------4----------------|
-----------------------|----------------------0--2--|
-----------------------|--3-------------2--3--------|

  E  E  E  E  E  E  S. T E     E  E  E  E  E  E  S. T E     H.           Q
----------------------------|-----------------------0----|---------------2----|
--0--------------------2----|--2--0--0-----0-------------|--2-----------------|
-----2--2--1--2-------------|--0--------3----------------|--------------------|
--------------------2----4--|--------------2--0----------|--------------------|
--4-----------2--4----------|--------------------4----2--|--0-----------------|
----------------------------|----------------------------|--------------------|

  E  E  E  E  E  E  E  E     E  E  E  E  E  E  E  E
--2-----------0--2--5--2--|--0-----------------2-----|
--------------------------|-----3--3-----------------|
--------------------------|--------------------------|
--------------------------|--------------------------|
--2-----2-----2-----2-----|--0-----0-----0-----0-----|
-----3-----3-----3-----3--|-----2-----2-----2-----2--|

  E  E  E  E  E  E  E  E     E  E  E  E  E  E  E  E     H        E  E  E  E
--2-----------0--2--5--2--|--0-----------------------|-----------------------|
--------------------------|-----3--3-----------3--2--|--0-----------0--------|
--------------------------|--------------------------|-----------------2--0--|
--------------------------|--------------------------|--0--------------------|
--2-----2-----2-----2-----|--0-----0-----0-----0-----|--0--------------------|
-----3-----3-----3-----3--|-----2-----2-----2-----2--|--0--------------------|

  E  E  E  E  E  E  E  E     H        E  E  E  E
--------------------------|-----------------2--0--|
--------------------------|-----------------------|
--2-----------0-----------|-----------------------|
--------2--4-----------2--|--4--------L--4--------|
--2--4--------0--2--4-----|--4--------------------|
--------------------------|--4--------------------|

  Q.     S. T S. T S. T S. T S. T    H        E  S. T S. T S. T
--2------2----2----3----0---------|--0--------L-----------------|
--0--------------------------3----|--2--------L-------2----3----|
--0-------------------------------|--2--------L--2--------------|
----------------------------------|-----------------------------|
----------------------------------|-----------------------------|
----------------------------------|-----------------------------|

  Q.     S. T S. T S. T S. T S. T    Q    E  E  Q    E  E
--0------0----0----2--------------|-------------0----------|
------------------------3----2----|--0----2--3-------2--0--|
--2-------------------------------|-------------0----------|
--4-------------------------------|--0---------------------|
----------------------------------|------------------------|
----------------------------------|------------------------|

  H        E.  E  S S S    H        E  E  E  E     H.           E  E
----------------------0-|--2--------L--2--3--5--|--0------------------|
---------------0--2-3---|--3--------L--3--------|--2------------2--3--|
--2--------L------------|--4--------L-----------|--2------------------|
--2--------L------------|--4--------L-----------|--2------------------|
------------------------|-----------------------|---------------------|
------------------------|--2--------L--2--------|--0------------------|

  H        E  T E  T E.     H        E  T E  T T E  T    Q.     E  Q    Q
--0--------0--L-5----0---|----------------0--L---2--L-|--2--------------2----|
--2----------------------|--4--------4--L-------------|--3------0--0----3----|
--2--------2--L-2--------|--5--------5--L--------2--L-|--4--------------4----|
--2--------2--L----------|--7-------------2--L---4--L-|---------4--4---------|
----------------0--------|-----------6--L-------------|---------2--2---------|
--0--------0--L------0---|----------------0--L---2--L-|--2--------------2----|

  H        E  T E  T T E  T    H        E  E  E  E     H        E  E  E  E
--0--------0--L-------------|-----------------------|--------------------0--|
----------------3--L---2--L-|--2--------L-----2--0--|--2--------0--2--3-----|
--3--------3--L-------------|--2--------L-----------|-----------------------|
--5--------2--L-0--L--------|--0--------L--4--------|--4--------------------|
-----------------------4--L-|--------------4--4--2--|-----------------------|
--0--------0--L-------------|--------------2--------|-----------------------|

  E  E  E  E  E  E  E  E     E  E  E  E  E  E  E  E
--2--------2--2--3--0-----|--0-----------------------|
--0--------------------3--|--2-----------------2--3--|
--0-----------------------|--2--------------2--------|
-----0--------------0-----|--------------------2-----|
--------0--2--------------|--------0--2--0-----------|
--3-----------------------|--3--0--------------------|

  E  E  E  E  E  E  E  E     E  E  E  E  Q    E  E     W
--0--------0--0--2--------|--------------0----------|-------------------||
--------------------3--2--|--0-----2--3-------2--0--|-------------------||
--2-----1--2--------------|--------------0----------|--2----------------||
--------------------------|--0--------0--0----------|--4----------------||
-----4--------------------|--2-----4----------0-----|--0----------------||
--2-----------------------|-----2-------------------|-------------------||

Duration Legend
---------------
W - whole
H - half
Q - quarter
E - 8th
S - 16th
T - 32nd
X - 64th
. - note dotted
|-n-|  - n-tuplets

http://en.wikipedia.org/wiki/Joe_Hisaishi
Tap to rate this tab
# A B C D E F G H I J K L M N O P Q R S T U V W X Y Z