Song name
# A B C D E F G H I J K L M N O P Q R S T U V W X Y Z

Misc Soundtrack - Princess Mononoke - Westward Jouney tab

     H        H           W                   H        H
E||--------------------|-------------------|--------------------|
B||--------------------|--0----------------|--1--------3--------|
G||--0--------2--------|-------------------|--------------------|
D||-----------0--------|--2----------------|--2--------4--------|
A||--3-----------------|-------------------|--------------------|
E||--------------------|-------------------|--------------------|

  H        H           H        H           Q    Q    Q    Q
--0-----------------|--0--------2--------|--3----5----3---------|
-----------3--------|--3-----------------|--3--------------3----|
--0-----------------|--0-----------------|--0-------------------|
--------------------|-----------4--------|----------------------|
--3-----------------|--3--------5--------|----------------------|
--------------------|--------------------|----------------------|

  H        H           W                   H        Q.     S S
--0--------2--------|--3----------------|--5---------------7-5-|
--0-----------------|--3----------------|----------------------|
--------------------|--4----------------|----------------------|
--2-----------------|--0----------------|--2--------4----------|
--------------------|-------------------|----------------------|
--------------------|-------------------|----------------------|

  Q    Q    Q    Q       H        H           H        Q    E  E
--3---------2---------|--------------------|----------------0--2--|
----------------------|--------------------|----------------0--3--|
----------------------|--------------------|----------------------|
--4----2---------0----|--2--------4--------|----------------------|
----------------------|--------------------|--0-------------------|
----------------------|--------------------|--0--------2----------|

  Q    Q    E  Q    E     H.           E  E     Q    Q    E  Q    E
--3----7----5-------3--|--3------------0--2--|--3----7----5--2----3--|
--5---------7--7-------|--5------------0--3--|--5---------7--3-------|
---------------7-------|--4------------------|-----------------------|
------------7----------|--2------------------|------------0----------|
--3---------9----------|---------------------|--0--------------------|
-----------------------|---------------------|-----------------------|

  Q.     S S Q    E   E     Q    E   E  E  E  E  E     E  E  E  E  Q    E  E
--3---------------7--10--|--5----7--10--5--7--0--3--|--7-----------3----------|
--5------3-1-3-----------|--------------------------|-----------3-------0--3--|
-------------0-----------|--0-----------2-----------|-----------4--4----------|
-------------0-----------|--------------2-----------|-----0--4-----5----------|
--3----------------------|--3-----------------------|-------------------------|
-------------------------|--------------------------|--3----------------------|

  Q    Q    E  Q    E     H        Q    E  E     Q.     E  E  S S E  E
--0----3----2----------|--0-------------0--3--|--5------7--5--7-5-3--2--|
---------------0----3--|----------------------|-------------------------|
--0---------2----------|--2--------0----------|--0----------------------|
------------0----------|--2-------------------|--2---------4------------|
--3--------------------|----------------------|--3---------6------------|
-----------------------|----------------------|-------------------------|

  H        Q    E  E     Q    E  E  E  E  E  E     W
----------------------|-------------------------|--0----------------|
--7--------0----0--3--|-------0--3-----0-----0--|--0----------------|
----------------------|--2----------2-----2-----|--2----------------|
--7--------4----------|-------------0-----------|--4----------------|
--7--------5----------|--3----------------------|-------------------|
----------------------|-------------------------|-------------------|

  S S E  E  E  E  E  E  E     E  E  E  E  E  E  E  S S
------0--------------0--5--|--2-----------2--0--2--0---|
--0-3----------------------|-------------------------3-|
---------------------------|---------------------------|
------------2-----------2--|-----------2-----------2---|
------2--0--------2--0-----|-----2--0--------2--0------|
---------------------------|---------------------------|

  E  E  E  E  Q    E  E     Q    Q    E  Q    E     Q.     E  Q    E  E
-------------------------|--0----3----2----------|--0--------------------|
--0----------------0--3--|-------0-------0----3--|--0--------------0--3--|
-------------------------|--0---------2----------|--2---------0----------|
-----------2-------0--4--|---------------0----4--|---------2-------4-----|
-----2--0----------------|-----------------------|-----------------5-----|
-------------------------|-----------------------|-----------------------|

  Q    Q    E  Q    E     Q.     S S Q    E  E     E  E  E  E  E  E  E  E
--0----3----2----------|--0---------------------|--------------------------|
-------0-------0----3--|---------3-1-3----0--3--|--------0--3-----0--------|
--0---------2----------|--0----------0-------0--|--2-----------2--------0--|
---------------0----4--|------------------0-----|--------------0-----2--0--|
-----------------------|---------3--------------|--3-----0--3-----0--2-----|
-----------------------|------------------------|-----3--------------------|

  E  E  E  E  Q    E  E     Q    Q    E  Q    E     Q.     E  Q    E  E
-------------------------|--0----3----2----------|--0--------------2--3--|
--0----------------0--3--|-------0-------0----3--|-----------------------|
-----2--0----------------|--0----0----2----------|--2---------0----------|
-----0-----4--0----0--4--|--2---------4--0----4--|--2------0-------------|
-----------0--2----2--5--|---------------2----5--|-----------------------|
--------3----------3-----|-----------------------|------------0----------|

  Q.     E  E  S S E  E     Q    Q    Q    E   E     Q    E   E  E  E  Q
--5------7--5--7-5-3--2--|-------0---------7--10--|--5----7--10--5--7-------|
-------------------------|--7---------0-----------|--------------------3----|
--0----------------------|--4--------------7------|--0-----------2----------|
--2---------4------------|--4---------4-----------|--------------0----------|
--3---------6------------|--7---------5-----------|--3----------------------|
-------------------------|------------------------|-------------------------|

  H        Q    E  E     E  E  E  E  E  E  E  E     W
----------------0--2--|--3-----7-----5--2-----3--|--3----------------|
----------------0--3--|--5-----8-----7--0-----3--|--5----------------|
----------------------|--------------------------|--2----------------|
--2-------------------|--------------0-----0--2--|--2----------------|
--0-------------------|--3--------------0--------|--2----------------|
--0--------3----------|-----3--7--8--------------|--0----------------|

-------------------||
-------------------||
-------------------||
-------------------||
-------------------||
-------------------||

Duration Legend
---------------
W - whole
H - half
Q - quarter
E - 8th
S - 16th
T - 32nd
X - 64th
. - note dotted
|-n-|  - n-tuplets

http://en.wikipedia.org/wiki/Joe_Hisaishi
Tap to rate this tab
# A B C D E F G H I J K L M N O P Q R S T U V W X Y Z