Song name
# A B C D E F G H I J K L M N O P Q R S T U V W X Y Z

Misc Soundtrack - Spirited Away - Itsumo Nando tab

Itsumo Nando Demo
~Spirited Away~
Composed by: Joe Hisaishi
Arranged by: Justin Lincoln

Drop D Tuning

     Q    Q    Q       Q    Q    Q       Q    Q    Q       Q    Q    E  E
E||-----------------|-----------------|-----------------|---------------0--|
B||-----------------|-----------------|-----------------|------------3-----|
G||-------2----2----|-------2----2----|-------2----2----|-------2----------|
D||-------4----4----|-------4----4----|-------4----4----|-------4----------|
A||-----------------|-----------------|-----------------|------------------|
D||--0--------------|--0--------------|--0--------------|--0---------------|

    E  E  Q    E  E     Q    Q    Q       E  E  Q    E  E     Q    Q    E  E
|---2-----5-------2--|--0----5----0----|--------2----------|------------------|
|------3-------------|-----------------|--3--0--0-------3--|--2---------3--2--|
|*-------------------|-------6----2----|-------------------|-------2----------|
|*--------4----0-----|-----------------|-------------4-----|-------4----------|
|--------------------|--0--------------|--2----------------|------------------|
|---0----------------|-----------------|-------------------|--4---------------|

  Q    Q    E  E     Q    Q    E  E     Q    E  E  E  E     Q    Q    E  E
---------------0--|------------0--2--|--3----3--2--0-----|--0------------0--|
--0----2----3-----|-------3----------|----------------3--|------------3-----|
-------0----------|--2---------------|-------------------|-------2----------|
------------0-----|-------4----0-----|-------2-----------|-------2----------|
------------------|------------------|-------------2-----|--0---------------|
--5---------------|--4---------------|--2----------------|------------------|

  E  E  Q    E  E     Q    Q    Q       E  E  Q    E  E     Q    Q    Q
--2-----5-------2--|--0----5----0----|-------------------|-----------------|
-----3-------------|-----------------|--3--0--0----2--3--|-----------------|
-------------------|-------6----2----|-------------------|--2---------2----|
--------4----0-----|-----------------|--------4----0-----|-------4---------|
-------------------|--0--------------|--2----------------|-----------------|
--0----------------|-----------------|-------------------|--4--------------|

                                                          1st Ending-------
  Q    Q    E  E     Q    Q    E  E     Q    E  E  E  E     Q    Q    Q
---------------0--|------------0--2--|--3----3--2--0-----|-----------------|
--0----2----3-----|-------3----------|----------------3--|--3--------------|
-------0----------|--2---------------|-------------------|-------2----2----|
------------0-----|-------4----0-----|-------2-----------|-------4----4----|
------------------|------------------|-------------0-----|-----------------|
--5---------------|--4---------------|--2----------------|--0--------------|

                                                         2nd Ending-------
  Q    Q    Q       Q    Q    Q       Q    Q    E  E       Q    Q    Q
-----------------|-----------------|---------------0---||-----------------|
-----------------|-----------------|------------3------||--3--------------|
-------2----2----|-------2----2----|-------2----------*||-------2----2----|
-------4----4----|-------4----4----|-------4----------*||-------4----4----|
-----------------|-----------------|-------------------||-----------------|
--0--------------|--0--------------|--0----------------||--0--------------|

  Q    Q    E  E     Q    Q    Q       Q    E  E  E  E     Q    Q    Q
------------2--3--|--5----5----5----|--5----5--7--5--3--|--2----2----2----|
------------------|-----------------|-------------------|-----------------|
-------2----------|-----------------|-------------------|-----------------|
-------4----------|-------4----0----|-------7-----------|-------4----0----|
------------------|-----------------|--0----------4-----|--2--------------|
--0---------------|--0--------------|-------------------|-----------------|

  Q    E  E  E  E     Q    Q    E  E     Q    Q    E  E     Q    E  E  E  E
--2----2--3--2--0--|------------------|------------------|--0----0--2--0--2--|
-------------------|--3----3----3--2--|--0----2----2--3--|-------------------|
-------------------|------------------|-------0----------|-------------------|
-------4-----------|-------4----0-----|------------0-----|-------2-----------|
-------------0-----|--2---------------|------------------|-------------2-----|
--4----------------|------------------|--5---------------|--2----------------|

  Q    Q    E  E     Q    Q    Q       Q    E  E  E  E     Q    Q    Q
--0---------2--3--|--5----5----5----|--5----5--7--5--3--|--2----2----2----|
------------------|-----------------|-------------------|-----------------|
-------2----------|-----------------|-------------------|-----------------|
-------2----------|-------4----0----|-------7-----------|-------4----0----|
--0---------------|-----------------|--0----------4-----|--2--------------|
------------------|--0--------------|-------------------|-----------------|

  E  E  E  E  E  E     Q    E  E  E  E     Q    Q    E  E     Q    E  E  E  E
--2--3--2--0--------|----------------0--|------------0--2--|--0-------0--0-----|
--------------3--2--|--0----0--2--3-----|-------3----------|----------------3--|
--------2-----------|-------0-----------|--2---------------|-------------------|
--------------4-----|-------------0-----|-------4----0-----|-------2-----------|
--------------------|-------------------|------------------|-------------4-----|
--4-----------------|--5----------------|--4---------------|--5----------------|

  ^       Da Capo
  H.
---------------||
--3------------||
--2------------||
--4------------||
---------------||
--0------------||

Duration Legend
---------------
W - whole
H - half
Q - quarter
E - 8th
S - 16th
T - 32nd
X - 64th
. - note dotted
|-n-|  - n-tuplets

Tablature Legend
----------------
1st Ending/2nd Ending - Play 1st ending and repeat as normal,
then jump 1st ending and play 2nd ending
Da Capo - Play from the beginning, including all repeats
^ - brush up
v - brush down

http://en.wikipedia.org/wiki/Joe_Hisaishi
Tap to rate this tab
# A B C D E F G H I J K L M N O P Q R S T U V W X Y Z