Song name
# A B C D E F G H I J K L M N O P Q R S T U V W X Y Z

Misc Soundtrack - My Neighbor Totoro - The Little Picture tab

   H        E  S. T S. T S. T    E  S. T S. T S. T S. T S. T S. T S. T
E||-----------------------------|--1-------0-----------------------------|
B||-------------------1----3----|------------------------------1----3----|
G||--------------0--------------|-------------------------0--------------|
D||-----------------------------|-----2---------2---------2---------2----|
A||-----------------------------|----------3-------------------3---------|
E||-----------------------------|--3-----------------3-------------------|

  E  S. T S. T S. T S. T S. T S. T S. T
--1--0----------------------------------|
----------3----1----1---------0----1----|
----------------------------------------|
-----2---------2---------2---------2----|
----------3-------------------3---------|
--3-----------------3-------------------|

  E  S. T S. T S. T S. T S. T S. T S. T
----------------------------------------|
--0-------------------------------------|
-----2----------------------------------|
-----2---------2---------2---------2----|
--0-------3---------0---------3---------|
----------------------------------------|

  E  S. T S. T S. T S. T S. T S. T S. T
-----------------------------------0----|
------------------------------3---------|
-------------------------2--------------|
-----2---------2---------2---------2----|
--0-------3---------0---------3---------|
----------------------------------------|

  E  S. T S. T S. T S. T S. T S. T S. T
--0--1----1------------------------0----|
------------------------------3---------|
-------------------------2--------------|
-----3----0----3---------3---------3----|
--0-----------------0---------4---------|
----------------------------------------|

  E  S. T S. T S. T S. T S. T S. T S. T
--1--0----------------------------------|
----------3----1--------------1----3----|
----------------------------------------|
-----3---------3---------3---------3----|
--0-------3---------0---------3---------|
----------------------------------------|

  E  S. T S. T S. T S. T S. T S. T S. T
------------------------------0----1----|
--1--0-------------------3--------------|
----------------------------------------|
-----3----0----3---------3----0----3----|
----------------------------------------|
--3-----------------3-------------------|

  E  S. T S. T S. T S. T S. T S. T S. T
--3--3---------3----6---------5----0----|
----------------------------------------|
----------------------------------------|
-----2---------2---------2---------2----|
----------1-------------------6---------|
--3-----------------3-------------------|

  E  S. T S. T S. T S. T S. T S. T T T S
--3--1----1----0----1--------------------|
-----------------------------------1---3-|
-----------------------------------------|
-----0---------0---------0---------0-----|
----------0------------------------------|
--1-----------------1---------4----------|

  E  S. T S. T T T S S. T S. T S. T S. T
--0------------0---0-1----0--------------|
-------------------------------3----1----|
-----------------------------------------|
-----------------------------------------|
-----3---------3----------3---------3----|
--0-------3----------0---------3---------|

  E  S. T S. T T T S S. T S. T S. T S. T
---------------------0-------------------|
--3------------3---3------3----1----0----|
-----------------------------------------|
-----0---------0----------0---------0----|
----------2--------------------2---------|
--3------------------3-------------------|

  E  S. T S. T S. T S. T S. T S. T S. T
------------------------------1----3----|
--1----------------------1--------------|
----------------------------------------|
----------------------------------------|
-----3---------3---------3----1----3----|
--0-------3---------0-------------------|

  E  S. T S. T S. T S. T S. T S. T S. T
--5--5----5----8----7----5----3----1----|
----------------------------------------|
----------------------------------------|
-----------------------------------0----|
-----3-------------------5----2---------|
--1-------6----8----3-------------------|

  E  S. T S. T S. T S. T S. T S. T S. T
--3-------3----5-------------------0----|
----------------------------------------|
--------------------5---------7---------|
-----2----0-------------------0---------|
---------------7----0----7---------7----|
--3-------------------------------------|

  E  S. T S. T S. T S. T S. T S. T S. T
--1-------1----0--------------0----1----|
--------------------3-------------------|
----------------------------------------|
-----0---------0---------0---------0----|
----------2-------------------2---------|
--1-----------------3-------------------|

  E  S. T S. T S. T S. T S. T S. T S. T
--3---------------------------1----3----|
-------------------------1--------------|
----------------------------------------|
-----2---------2---------2---------2----|
----------3---------1---------3---------|
--3-------------------------------------|

  E  S. T S. T S. T S. T S. T S. T S. T
--5--5---------8----7----5----3----1----|
----------------------------------------|
----------------------------------------|
-----3-------------------0---------0----|
--0-------3----8--------------2---------|
--------------------3-------------------|

  E  S. T  S.T S. T S. T S. T S. T  T T S
--3-------10--------8-------------------7-|
-----------------------------------10-----|
------------------------------------------|
-----3------------------------------------|
---------------8----0----8----------8-----|
--3--------7------------------8-----------|

  E  S. T S. T S. T S. T S. T S. T S. T
--8--7----8--------------7----5----7----|
----------------------------------------|
----------------------------------------|
-----0---------0---------0---------0----|
--8-------0-----------------------------|
--------------------3---------7---------|

  E  S. T S. T S. T S. T S. T S. T S. T
--8---------------------------1----3----|
-------------------------1--------------|
----------------------------------------|
----------------------------------------|
--8------------3---------3----1----3----|
-----8----3---------0-------------------|

  E  S. T S. T S. T S. T S. T S. T S. T
--5--5----5----8----7----5----3----1----|
----------------------------------------|
----------------------------------------|
-----------------------------------0----|
-----3-------------------5----2---------|
--1-------5----8----3-------------------|

  E  S. T S. T S. T S. T S. T S. T S. T
--3-------3----5-------------------0----|
------------------------------3---------|
--------------------5-------------------|
-----2----0------------------------2----|
---------------7----0----7----3---------|
--3-------------------------------------|

  E  S. T S. T S. T S. T S. T S. T S. T
--1-------1----0--------------0----1----|
--------------------3-------------------|
----------------------------------------|
-----0---------0---------0---------0----|
----------0-------------------2---------|
--1-----------------3-------------------|

  E  S. T S. T S. T S. T S. T S. T S. T
--3---------------------------1----3----|
-------------------------1--------------|
----------------------------------------|
-----2---------2---------2---------2----|
----------3---------1---------3---------|
--3-------------------------------------|

  E  S. T S. T S. T S. T S. T S. T S. T
--5--5---------8----7----5----3----1----|
----------------------------------------|
----------------------------------------|
-----3-------------------0---------0----|
--0-------3----8--------------2---------|
--------------------3-------------------|

  E  S. T  S.T S. T S. T S. T S. T T T S
--3-------10--------8--------------5---7-|
-----------------------------------------|
-----------------------------------------|
-----2-----------------------------------|
---------------7----0----7---------7-----|
--3--------7------------------8----------|

  E  S. T S. T S. T S. T S. T S. T E     W
--8--7----8--------------7----5----7--|--8----------------||
--------------------------------------|-------------------||
--------------------------------------|-------------------||
-----0---------0---------0---------0--|-------------------||
--8-------0---------------------------|--7----------------||
--------------------3---------7-------|--8----------------||

Duration Legend
---------------
W - whole
H - half
Q - quarter
E - 8th
S - 16th
T - 32nd
X - 64th
. - note dotted
|-n-|  - n-tuplets

http://en.wikipedia.org/wiki/Joe_Hisaishi
Tap to rate this tab
# A B C D E F G H I J K L M N O P Q R S T U V W X Y Z