Song name
# A B C D E F G H I J K L M N O P Q R S T U V W X Y Z

Misc Soundtrack - Pans Labyrinth Theme tab

this didn't take very long to figure out. I was just messing around one minute, then it 
sounded like it. I hope you enjoy it.


Guitar I (E A D G B e)
Guitar II (E A D G B e)


Guitar I
e|--0----------0--1--0----|
B|----3--1--3-------------|
G|------------------------|
D|------------------------|
A|------------------------|
E|------------------------|

Guitar II
e|------------------------|
B|------------------------|
G|------------------------|
D|------------------------|
A|--0----------0--1--0----|
E|----3--1--3-------------|

so yeah, there it is, pretty straight forward.
if you have any questions, just email me.
black_and_white_0001@yahoo.com
Tap to rate this tab
 
# A B C D E F G H I J K L M N O P Q R S T U V W X Y Z