Song name
# A B C D E F G H I J K L M N O P Q R S T U V W X Y Z

Misc Soundtrack - Lord Of The Ring - The Shire tab

Jouper:- You can make this Easy or complicated
This is my way of the song
Tuning:EADGBe
E-Mail Kevin_jouper@hotmail.com
P =Pull Of
H = Hammer on
( ) = Dont need to do
e|----------5-------------------------5--7--5--2--0-|
B|----5--7-----7--5-------------5--7----------------|
G|-7-----------------7--(7)--7----------------------|
D|--------------------------------------------------|
A|--------------------------------------------------|
E|--------------------------------------------------|

This is J TO the Roc
e|----------------------------------------------------------------------------|
B|---------------------3--------6---------3-----------------------------------|
G|-----3-------5----------------------------------5--------3------------------|
D|----------------------------------------------------------------------------|
A|----------------------------------------------------------------------------|
E|----------------------------------------------------------------------------|

e|--------------------------3--------6---------3----------------------------|
B|-----3--------6-----------------------------------------6---------3-------|
G|--------------------------------------------------------------------------|
D|--------------------------------------------------------------------------|
A|--------------------------------------------------------------------------|
E|--------------------------------------------------------------------------|

e|----------------------------------------------------------------------------|
B|---4p3----------------------------------------------------------------------|
G|---------------5------------------------------------------------------------|
D|----------------------------------------------------------------------------|
A|----------------------------------------------------------------------------|
E|----------------------------------------------------------------------------|

Part 2
e|---------------------------------------------------------------------------|
B|------------------------3--------6--------3--------------------------------|
G|-------3------5--------------------------------------5----------3h5p3------|
D|---------------------------------------------------------------------------|
A|---------------------------------------------------------------------------|
E|---------------------------------------------------------------------------|

e|----------------------------3---------------------------------------------|
B|-------3--------6--------------------6---------3----------1---------------|
G|--------------------------------------------------------------------------|
D|--------------------------------------------------------------------------|
A|--------------------------------------------------------------------------|
E|--------------------------------------------------------------------------|
Tap to rate this tab
 
# A B C D E F G H I J K L M N O P Q R S T U V W X Y Z