Song name
# A B C D E F G H I J K L M N O P Q R S T U V W X Y Z

Misc Soundtrack - 28 Weeks Later - Fire Bombing London tab

Fire Bombing London from the 28 Weeks Later Soundtrack... Enjoy


****Note: For guitar two, play each note after four of guitar ones parts until the first
then play each note after each 2 of guitar ones parts... if this doesn't make sense,
listen to the song i guess... also, im not sure if guitar two is totally right... it 
really close to me, but if you find better notes then please tell me...
these are the BASS notes by the way

Start playing at about 17 seconds into the song with the open D string

Guitar I
e:-----------------------------------------------------------------------|
B:-----------------------------------------------------------------------|
G:-----------------------------------------------------------------------|
D:-----------------------------------------------------------------------|
A:--5-5-7-7-5-5-0--5-5-7-7-5-5--5-5-7-7-5-5-0-5-5-7-7-5-5--5-5-7-7-5-5-0-|
D:0----------------------------------------------------------------------|


e:---------------------------------------------------------------------------|
B:---------------------------------------------------------------------------|
G:---------------------------------------------------------------------------|
D:---------------------------------------------------------------------------|
A:--5-5-7-7-5-5--5-5-7-7-5-5-0--5-5-8-8-7-7-5-5---5-5-7-7-5-5-0--5-5-7-7-5-5-|
D:----------------------------------------------0----------------------------|


e:---------------------------------------------------------------------------|
B:---------------------------------------------------------------------------|
G:---------------------------------------------------------------------------|
D:---------------------------------------------------------------------------|
A:-5-5-7-7-5-5-0--5-5-8-8-7-7-5-5--5-5-7-7-5-5-0--5-5-7-7-5-5--5-5-7-7-5-5-0-|
D:---------------------------------------------------------------------------|


e:---10--10--10--10--10--10--10--10--10--10--10--10-------------------------|
B:-10--10--10--10--10--10--10--10--10--10--10--10---------------------------|
G:--------------------------------------------------------------------------|
D:--------------------------------------------------------------------------|
A:---------------------------------------------------5-5-8-8-7-7-5-5--------|
D:--------------------------------------------------------------------0-----|

the last 5-5-8-8-7-7-5-5 is optional, but it sounds good if you time it right


Guitar II
e:--------------------------------------------------------------------------|
B:--------------------------------------------------------------------------|
G:--------------------------------------------------------------------------|
D:--------------------------------------------------------------------------|
A:---------1----------------------------------------------------------------|
D:0--2--1-----0-------------------------------------------------------------|

Just play these four notes over and over
Tap to rate this tab
# A B C D E F G H I J K L M N O P Q R S T U V W X Y Z