Guitaretab - guitar tabs
Song name
# A B C D E F G H I J K L M N O P Q R S T U V W X Y Z

Misc Soundtrack - Reason - Endless Love Ost tab

REASON - OST ENDLESS LOVE AUTUMN IN MY HEART
MUSIC SHEET FROM: http://set7.piano.free.fr/en/
TABBED BY: JIGENSKY

E||-----5-4-|--5-----L--2--L----L-0-5-4-|--5-----L--0--L-------5-4-|
B||---------|--------3------------------|--------2--2--L-----------|
G||---------|-----2---------------------|-----2-----4--L-----------|
D||---------|--0------------------------|--------------------------|
A||---------|---------------------------|--4-----------------------|
E||---------|---------------------------|--------------------------|

--5----0----2--L--7--9--|--7------5--L-------0---||------------------------2--|
------------3--L--------|--6--------------2------||---------0--------0--2-----|
-------2----2--L--------|--7-------------------2-||*--L--------L--------------|
------------0--7--------|------------------------||*-----2-----2-----------L--|
-------4----------------|--8---------------------||---0--------4-----------L--|
--7---------------------|------------------------||---------------------------|


--2----------0-----------|-----------------2--4--5--|--4-----L-----------2-----|
----------0-----------0--|-----------2--2-----------|-----------5-----5--------|
-------------------1-----|--2-----L-----------------|--------6--------------2--|
------2---L--L--2--------|--------4--------------L--|-----6--------------------|
-------------------------|-----4--------------------|--4--------L--------------|
--4----------L-----------|--2-----------------------|--------------------------|


-----------0--L--0--2-----|-----------0--L----------|--0-----------------------|
--------3-----------------|--------2-----------2----|-----3--3--0-----0-----0--|
-----2-----------------2--|--L--2-----------2-------|--------0--6--6-----2-----|
--0-----------L-----------|-------------------------|-----0--------------------|
--------------------------|--4--------L-------------|--------------------------|
--------------------------|-------------------------|--3-----------------------|


--------------------0-----|-----------0--L--------2--|
-----------------0--------|-----------2--L--0--2-----|
-----------2--1--------2--|--------2--4--L-----------|
--------2-----------------|-----2--------------------|
-----2--------------------|--0-----------------------|
--0-----------------------|--------------------------|


--2-----L--0--L-----------|-----------------2--4--5--|
-----------0--L-----0-----|-----------2--2-----------|
--------1--------------1--|--2-----L--2--2-----------|
-----2-----------2--------|--------4-----------------|
--------------------------|-----4--------------------|
--4-----------------------|--2-----------------------|


--4-----L-----------------|------------0--L--0--2-----|
-----------5--L--5--7-----|---------3--0--L-----------|
--------6-----------------|---5--2-----------------2--|
-----6-----------------7--|--L------------------------|
--4-----------------------|---------------------------|
--------------------------|---------------------------|


-----------0--L-----------|--0---------------------|-----------------------|
--------2--2--L-----2-----|-----3--3--2--3------2--|--0-----------0--------|
--L--2-----------2-----2--|--------0--0---------L--|-----------1-----------|
--------------------------|-----0-----0---------L--|--------2-----2--------|
--4-----------------------|------------------------|-----2-----------------|
--------------------------|--3---------------------|--0--------------------|


-----------0--0------------|-----------2-----0--------|
-----------0--3--3--3--2-2-|--------L-----------2--3--|
--------0------------------|-----------3--------3-----|
--0--0---------------------|--------4--------4--------|
--2------------------------|-----4--------1-----------|
--3------------------------|--2-----------------------|


--------------------------|-------------------------|-----------0--0-----------|
-----L--0--3--3--2--2--2--|-----L--3--0--L--0-------|-----------0--3--3--3--2--|
--------------------2-----|-----------1--L----------|--0-----0--------------0--|
-----4-----------4--------|--------2-----------2----|--0--0--------------------|
--2-----------0-----------|-----2-------------------|--------------------------|
--------------------------|--0----------------------|--3-----------------------|


-----------2--L--0--------|-----------------0--2--5--|--5--------4--L--L--0----|
--2-----------------2--3--|--------L--3--3--------3--|-----------------0-------|
--------------------3-----|--------4-----------2-----|-----------1--L----------|
-----4--4--L-----4--------|-----4-----------4--------|--------2----------------|
-----4--------1-----------|--2-----------0-----------|-----2-------------------|
--2-----------------------|--------------------------|--0----------------------|

[ Tab from: http://www.guitaretab.com/m/misc-soundtrack/109282.html ]
--0-----------------0--|--------L--0--L-----0--2--|--------L--2--L-----2--4--|
--------------2--3-----|--------0--2--L--2--------|--------0--3--L--3--------|
--1--------------------|-----------------------2--|-----L--------------------|
--2--------------------|-----2--------------------|-----4--------------------|
-----------------------|--0-----------------------|--2-----------------------|
-----------------------|--------------------------|--------------------------|


--L--0-----5--L--------0--|--2--0-----------------0--|
--------2-----------------|--------3--3--0--2--3-----|
-----1-----------------2--|--------4--6-----------1--|
--------------------4-----|-----4--------------2-----|
--4--------------4--------|--2--------------2--------|
--------------2-----------|--------------0-----------|


--------L--0--L-----0--2--|--------L--2--L-----2--4--|
--------0--2--L--2--------|--------0--3--L--3--------|
--------L-----------------|--------------------------|
-----2--------------------|-----4--------------------|
--0-----------------------|--2-----------------------|
--------------------------|--------------------------|


-----0-----7--5--------L--|--9-----7-----7--------5--|--7-----------L--------|
--------2-----------------|--------0--------7--9-----|--------------0--------|
-----1-----------------2--|-----------7-----------7--|-----------------------|
--------------------4-----|--------------------7-----|-----------6-----------|
--4--------------4--------|-----9--------0--9--------|--------7--------------|
--------------2-----------|--7-----------------------|--0--7-----------------|


-----------5--5-----------|-----------0---L----------|
--------3--6-----6--------|-----------0---L-------L--|
--2--2--------------7-----|--6--------6---L----------|
--3--------------------7--|--------7-----------------|
--5-----------------------|--0--7-----------------0--|
--------------------------|--------------------------|


--------------------------|-----------0--L--L----5-4-|
-----------3-----2--0-----|-----------2--L--L--------|
-----------------------2--|-----L--2--4--L--L--------|
--------0--3--------2-----|-----2--------------------|
--0--0-----------2--------|--0-----------------------|
--0-----------0-----------|--------------------------|


--5----------------L---5-4-|--5--------0--L-------5-4-|
--------3--7--L------5-----|--------2--5--L-----------|
-----2---------------------|-----2-------------2------|
---------------------------|--------------------------|
--5------------------------|--4-----------------------|
---------------------------|--------------------------|


--5--0--L--2--L-----7--10--|--7--------7--|---7---------L-------0-----||
-----------0------------7--|--6-----6-----|--10---------L--0----------||
-----2--L--2--L--2--7------|--7--7--------|------------------6----2--*||
-----4-----0--0------------|--------------|--------------------------*||
--------4------------------|--8-----------|---------------------------||
--7------------------------|--------------|---------------------------||


--5------------------L---5--4-|--5--------0--L----------|
--------3---7----------5------|-----------0--L-------2--|
-----2-----11---L-----------L-|--------1----------------|
--0---------------------------|-----2-------------------|
------------------------------|--4----------------------|
------------------------------|-------------------------|

                                              
-------------------------|------------------------|-------------------||
--3-----2--2-----0--0----|------------------------|-------------------||
-------------------------|--2---------2-----------|--2----------------||
--4--4--2-----0-----0----|---------2-----------2--|--L----------------||
--2-----4-----------7----|--4---------0--2--4-----|-------------------||
-------------------------|--5---------------------|-------------------||




Duration Legend
---------------
W - whole
H - half
Q - quarter
E - 8th
S - 16th
T - 32nd
X - 64th
. - note dotted
|-n-|  - n-tuplets


Tablature Legend
----------------
L - tied note
x - dead note
g - grace note
(n) - ghost note
> - accentuded note
NH - natural harmonic
AH - artificial harmonic
TH - tapped harmonic
SH - semi harmonic
PH - pitch harmonic
h - hammer on
p - pull off
b - bend
br - bendRelease
pb - preBend
pbr - preBendRelease
brb - bendReleaseBend
\n/ - tremolo bar dip
\n - tremolo bar dive
-/n - tremolo bar Release up
/n\ - tremolo bar inverted dip
/n - tremolo bar return
-\n - tremolo bar Release down
S - shift slide
s - legato slide
/ -  slide into from below or out of upwards
\ -  slide into from above or out of downwards
~ - vibrato
W - wide vibrato
tr - trill
TP - tremolo picking
T - tapping
S - slap
P - pop
< - fade in
^ - brush up
v - brush down
Related for Reason - Endless Love Ost tab
Advertisement will be closed in 10 seconds