Song name
# A B C D E F G H I J K L M N O P Q R S T U V W X Y Z

Misc Soundtrack - Once Upon A Time In America Theme tab

ONCE UPON A TIME IN AMERICA (Childhood Poverty)

----------------|---------------------------------|
----------------|---------------------------------|
-9--------------|9--------------------------------|
---9------------|--9------------------------------|
-----7-10-8-7-8-|----7-8-10-7---------7------10---|
----------------|-------------8-12-11---10-9----8-|


--------------------|--------------------|---------|
--------------------|--------------------|---------|
--------------------|--------------------|-9-------|
--------------------|-9--------9-6-8-9-8-|---9-----|
-7-10----------10-7-|---7-8-7------------|-----7---|
------7-8-10-8------|--------------------|---------|


----------|--------------------------------|--------|
----------|--------------------------------|--------|
----------|-9------------------------------|--------|
----------|---9----------------------------|--------|
-10-8-7-8-|-----7-8-10-7--------------10---|-7-8-10-|
----------|--------------8-12-11-10-9----8-|--------|

------------------------------|---------------------|
------------------------------|---------------------|
------------------------------|---------------------|
------------------------------|---------------------|
--------------12--------------|-7--5--8--7--5--7--9-|
-7-9-11-14-12----12-11-10-9-8-|---------------------|

I wrote those tabs from this video: http://www.youtube.com/watch?v=CEWLEumLaNo&feature=related

For any information add me on MSN: sa_ki_ca@hotmail.com

Good luck with playing! ;)
Tap to rate this tab
# A B C D E F G H I J K L M N O P Q R S T U V W X Y Z