Song name
# A B C D E F G H I J K L M N O P Q R S T U V W X Y Z

Misc Soundtrack - Team America - Fuck Yeah tab

Help us improve GuitareTab! Take a short survey!
-------------------------------------------------------------------------------
			     AMERICA, FUCK YEAH - Team America: World Police
-------------------------------------------------------------------------------
Tabbed by: MonstaMan
Email: teeelo@hotmail.co.uk

Tuning: Standard

INTRO
e|-0----2----|
B|-1----3----|
G|-0----2----|
D|-2----0----|
A|-3---------|
E|-----------|

VERSE PT.1/CHORUS
e|---------------------------------------------------------|
B|---------------------------------------------------------|
G|---------------------------------------------------------|
D|-9--9-9-9-9-9-9-7--9--9-9-9-9-7--7-7-7-7-7-7-------5-----|
A|-7--7-7-7-7-7-7-5--7--7-7-7-7-5--5-5-5-5-5-5-5--------7--|
E|------------------------------------------------7--------|

VERSE PT. 2
e|----------------------------------------------------------|
B|----------------------------------------------------------|
G|----------------------------------------------------------|
D|----------------------------------------------------------|
A|-5--5-5-5-5-5-5-7--7-7-7-7-7-7-5--5-5-5-5-5-5----------5--|
E|-3--3-3-3-3-3-3-5--5-5-5-5-5-5-3--3-3-3-3-3-3-5--7--8-----|

BRIDGE
e|----------------------------|
B|----------------------------|
G|----------------------------|
D|-9--9-9-9-9-9-9-7--9--9-9-9-|
A|-7--7-7-7-7-7-7-5--7--7-7-7-|
E|----------------------------|

e|------------------------------|
B|------------------------------|
G|---12---11---7-9---7----------|
D|-9----9----9-----9---5-4------|
A|-------------------------5-7--|
E|------------------------------|

OUTRO
e|-------------------------------------------------------------|
B|-------------------------------------------------------------|
G|-------------------------------------------------------------|
D|-9----9----9----9---9---9---9--9--9--9-9-9-9-9-9-9-9-9-9-9-9-|
A|-7----7----7----7---7---7---7--7--7--7-7-7-7-7-7-7-7-7-7-7-7-|
E|-------------------------------------------------------------|

| /  slide up
| \  slide down
| h  hammer-on
| p  pull-off
| ~  vibrato
| +  harmonic
| x  Mute note
===============================================================================
Related for Team America - Fuck Yeah tab