Song name
# A B C D E F G H I J K L M N O P Q R S T U V W X Y Z

Misc Soundtrack - Camp Rock - This Is Me tab

Band / Artist : Camp Rock
Song Title: This Is Me
Tabbed By : Shawn

Ha Ha as soon as I song the camp rock thing I was like, everybody talks about
that movie! Ha Ha so I went to lime-wire and I spent like 2 hours trying to
figure it out. So here.

 Intro / Verse (Listen for the rhythm) :
e|-----------------:|
B|--9----54--4-----:|
G|-6-6-66---6-6----:|  X5 (5 Times)
D|8--------6-------:|
A|----9--------6---:|
E|-----------------:|

 Bridge / Pre-Chorus :
e|-----------------|
B|-----------------|
G|-----------------|
D|4---66666--------|
A|4---66666--------|
E|2---44444--------|

 Chorus (Listen for rhythm) :
e|----------------------------------------:|
B|----------------------------------------:|
G|-----66666----------------66666---------:| X2 (2 Times)
D|44444666666666666888844444666666---8888-:|
A|44444444446666666888844444444446---8888-:|
E|22222-----4444444666622222-----4---6666-:|

 Intro / Verse (Listen for the rhythm) :
e|-----------------:|
B|--9----54--4-----:|
G|-6-6-66---6-6----:|  X5 (5 Times Again)
D|8--------6-------:|
A|----9--------6---:|
E|-----------------:|
 
 PLAY THIS UNDER THE 2ND VERSE :
e|-----------------:|
B|-----------------:|
G|--------6--------:|
D|8---4---6---6----:|
A|8---4---4---6----:|
E|6---2-------4----:|

 Chorus (Listen for rhythm) :
e|----------------------------------------:|
B|----------------------------------------:|
G|-----66666----------------66666---------:| X2 (2 Times Again)
D|44444666666666666888844444666666---8888-:|
A|44444444446666666888844444444446---8888-:|
E|22222-----4444444666622222-----4---6666-:|

 Interlude / Solo (Listen for rhythm) :
e|--------------------11-11-11-11---------|
B|67976-679119-67976-9--9--9--9--9--------|
G|----------------------------------------|
D|----------------------------------------|
A|----------------------------------------|
E|----------------------------------------|
 
 Chorus (Joe comes in) (Listen for rhythm) :
e|----------------------------------------:|
B|----------------------------------------:|
G|-----66666----------------66666---------:|  (Play until Ending)
D|44444666666666666888844444666666---8888-:|
A|44444444446666666888844444444446---8888-:|
E|22222-----4444444666622222-----4---6666-:|

 Ending :
e|----------------------------------------|
B|----------------------------------------|
G|----6-----------------------------------|
D|6-4-6-4-6-------------------------------|
A|6-4-4-4-6-------------------------------|
E|4-2---2-4-------------------------------|
                           -Let last chord ring out.

Well. That's it, pretty easy song, but it was hard to figure out. And don't
forget to listen to the rhythm off the song; it's confusing. Ha Ha. Well bye.
Tap to rate this tab
# A B C D E F G H I J K L M N O P Q R S T U V W X Y Z