Song name
# A B C D E F G H I J K L M N O P Q R S T U V W X Y Z

Misc Soundtrack - The Crow - Rooftop tab

-------------------------------------------------------------------------------
		 The Crow - Rooftop solo (Extended version)      
-------------------------------------------------------------------------------
Tabbed by: Darren 
Email: Dazsturbed@hotmail.co.uk

Tuning: Standard 

e|---------------------------------------------------------------------------|
B|---------------------10-----------10---------------------------------------|
G|-15b---14--12--11~~------9~~--11------9~~--14------------------------------|
D|----------------------------------------------12~~-12h14-----(Feedback)----|
A|---------------------------------------------------------------------------|
E|---------------------------------------------------------------------------|

e|-----------------------------------------------------0-(Hold)--------------|
B|---------------------10-----------------------8------5---------------------|
G|-15b---14--12--11~~------9~~--9h11--11s12--7~----5~--4---------------------|
D|---------------------------------------------------------------------------|
A|---------------------------------------------------------------------------|
E|---------------------------------------------------------------------------|

e|-0-0-3-0-0-0-5-0-0-0-5-0-0-0-7-0-0-0-8-0-0-0-7-0-0-0-5-0-0-0-2-------------|
B|-5-5-5-5-5-5-5-5-5-5-5-5-5-5-5-5-5-5-0-5-5-5-5-5-5-5-5-5-5-5-5-------------|
G|-4-4-4-4-4-4-4-4-4-4-4-4-4-4-4-4-4-4---4-4-4-4-4-4-4-4-4-4-4-4-------------|
D|---------------------------------------------------------------------------|
A|---------------------------------------------------------------------------|
E|---------------------------------------------------------------------------|

e|-0-0-0-3-0-0-0-5-0-0-0-5-0-0-0-7-0-0-0-8-0-0-0-7-0-0-0-5-0-3-0-2-0-------|
B|-5-5-5-5-5-5-5-5-5-5-5-5-5-5-5-5-5-5-5-0-5-5-5-5-5-5-5-5-5-5-5-5-5-------|
G|-4-4-4-4-4-4-4-4-4-4-4-4-4-4-4-4-4-4-4---4-4-4-4-4-4-4-4-4-4-4-4-4-------|
D|-------------------------------------------------------------------------|
A|-------------------------------------------------------------------------|
E|-------------------------------------------------------------------------|

e|---------------------------------------------------------------------------
B|---------------------------------------------------------------------------
G|-5-5-7-7-7-7-9-9-9-9-10-10-10-10-11-11-11-11-12-12-12-12-13-13-13-13-14-14-
D|-5-5-7-7-7-7-9-9-9-9-10-10-10-10-11-11-11-11-12-12-12-12-13-13-13-13-14-14-
A|-3-3-5-5-5-5-7-7-7-7-8--8--8--8--9--9--9--9--10-10-10-10-11-11-11-11-12-12-
E|---------------------------------------------------------------------------
          Crazy breakdown (pick the A and D string faster as you go along)
e|-------|------------------------------------------------------------------
B|-------|------------------------------------------------------------------
G|-14-14-|------------------------------------------------------------------
D|-14-14-|141214121412141215131513151315121614161416141614171517151515151518
A|-12-12-|121212121212121213131313131313121414141414141414151515151715171516
E|-------|------------------------------------------------------------------

e|-----------------------------------------------0--------------------------|
B|-----------------------------------------------0--------------------------|
G|-----------------------------------------------0----(feedback)------------|
D|161816181618161917191719171917-(random notes)--0--------------------------|
A|161616161616161717171717171717-----------------0--------------------------|
E|-----------------------------------------------0--------------------------|

For the rythm of the parts you'll just have to watch the youtube/extended dvd
video to get an idea of how fast/slow you play the parts. 

If you wanna do it exactly how eric draven does it on the film then instead
of playing all the open strings and getting feedback just smash your guitar
to bits on your amp, it will probably make a more authentic sound ;D 

| s  slide 
| h  hammer-on
| p  pull-off
| ~  vibrato
| +  harmonic
| x  Mute note
| b 1/2 Bend

===============================================================================
Tap to rate this tab
# A B C D E F G H I J K L M N O P Q R S T U V W X Y Z