Song name
# A B C D E F G H I J K L M N O P Q R S T U V W X Y Z

Misc Soundtrack - One Missed Call - Japanese Melody Of Death tab

Help us improve GuitareTab! Take a short survey!
one missed call(japanese version)
melody of death
this is 100% correct



e|---------0------|-------------|---------0------|-------------|
B|------1-----1---|------0--2---|------1-----1---|------0--2---|
G|---2------------|---1---------|---2------------|---1---------|
D|----------------|-------------|----------------|-------------|
A|----------------|-------------|----------------|-------------|
E|----------------|-------------|----------------|-------------|


e|---0-----------|------------------|---0-----------|------------------|
B|------3--2--0--|--3--2--0---------|------3--2--0--|--3--2--0---------|
G|---------------|-----------2--0---|---------------|-----------2--0---|
D|---------------|------------------|---------------|------------------|
A|---------------|------------------|---------------|------------------|
E|---------------|------------------|---------------|------------------|



e|---2-4-6-4-2-2-|-2-1-2-4-2-1-2---|
B|---------------|-----------------|
G|---------------|-----------------|
D|---------------|-----------------|
A|---------------|-----------------|
E|---------------|-----------------|
Related for One Missed Call - Japanese Melody Of Death tab