Song name
# A B C D E F G H I J K L M N O P Q R S T U V W X Y Z

Misc Soundtrack - Spongebob Squarepants - Goofy Goober Rock tab

 Intro
  Q=106
    A5 G5         D5       E5 G5   A5    G5         D5       E5 C5
 4/4
  Gtr I
|---------------|----------------|----------------|-----------------|
|---------------|----------------|----------------|-----------------|
|---2-----------|-7-7-7-7--------|-2--2-----------|-7-7-7-7--9--5---|
|---2--5-5-5-5--|-7-7-7-7--2--5--|-2--2--5-5-5-5--|-7-7-7-7--9--5---|
|---0--5-5-5-5--|-5-5-5-5--2--5--|-0--0--5-5-5-5--|-5-5-5-5--7--3---|
|------3-3-3-3--|----------0--3--|-------3-3-3-3--|-----------------|


  A5    G5         D5       E5 G5   A5    G5         D5       E5 C5
|----------------|----------------|----------------|----------------|
|----------------|----------------|----------------|----------------|
|-2--2-----------|-7-7-7-7--------|-2--2-----------|-7-7-7-7--9--5--|
|-2--2--5-5-5-5--|-7-7-7-7--2--5--|-2--2--5-5-5-5--|-7-7-7-7--9--5--|
|-0--0--5-5-5-5--|-5-5-5-5--2--5--|-0--0--5-5-5-5--|-5-5-5-5--7--3--|
|-------3-3-3-3--|----------0--3--|-------3-3-3-3--|----------------|


 Verse
  A5                             G5   D5     A5
  >
|----------|------------|------------------|------|
|----------|------------|------------------|------|
|-2--------|-(2)--------|-(2)---------7-7--|-2----|
|-2--------|-(2)--------|-(2)----5-5--7-7--|-2----|
|-0--------|-(0)--------|-(0)----5-5--5-5--|-0----|
|----------|------------|--------3-3-------|------|


                                   G5   D5     A5       G5 D5
   >
|------------|------------|------------------|-----------------|
|------------|------------|------------------|-----------------|
|-(2)--------|-(2)--------|-(2)---------7-7--|-2----(2)----7---|
|-(2)--------|-(2)--------|-(2)----5-5--7-7--|-2----(2)-5--7---|
|-(0)--------|-(0)--------|-(0)----5-5--5-5--|-0----(0)-5--5---|
|------------|------------|--------3-3-------|----------3------|


 Pre-Chorus
  G5            D5            G5              C5  G5D5
|-------------|-------------|-------------|--------------|
|-------------|-3--3--3--3--|-------------|--------------|
|-------------|-2--2--2--2--|-------------|-x-5-----7----|
|-5--5--5--5--|-0--0--0--0--|-5--5--5--5--|-x-5-x-5-7----|
|-5--5--5--5--|-------------|-5--5--5--5--|-x-3-x-5-5----|
|-3--3--3--3--|-------------|-3--3--3--3--|-----x-3------|


 Chorus
    A5 G5         D5       E5 G5   A5    G5         D5       E5 C5
|---------------|----------------|----------------|----------------|
|---------------|-3-3-3-3--------|----------------|----------------|
|---2-----------|-2-2-2-2--------|-2--2-----------|-7-7-7-7--9--5--|
|---2--5-5-5-5--|-0-0-0-0--2--5--|-2--2--5-5-5-5--|-7-7-7-7--9--5--|
|---0--5-5-5-5--|----------2--5--|-0--0--5-5-5-5--|-5-5-5-5--7--3--|
|------3-3-3-3--|----------0--3--|-------3-3-3-3--|----------------|


  A5    G5         D5       E5 G5   A5    G5         D5       E5 C5
|----------------|----------------|----------------|----------------|
|----------------|----------------|----------------|----------------|
|-2--2-----------|-7-7-7-7--------|-2--2-----------|-7-7-7-7--9--5--|
|-2--2--5-5-5-5--|-7-7-7-7--2--5--|-2--2--5-5-5-5--|-7-7-7-7--9--5--|
|-0--0--5-5-5-5--|-5-5-5-5--2--5--|-0--0--5-5-5-5--|-5-5-5-5--7--3--|
|-------3-3-3-3--|----------0--3--|-------3-3-3-3--|----------------|


 Guitar Solo
  A5              G5          D5                        E5  G5
  Gtr II
                  ~~~~~~~~~
|---------------------------|-----------------------------------|
|-8b10-----8b10===8-----8r--|-5-8-5---5---8-5---5---------------|
|---------------------------|-------7---------7---7b9-7-5\------|
|---------------------------|-----------------------------------|
|---------------------------|-----------------------------------|
|---------------------------|-----------------------------------|
|
| Gtr I
|---------------------------|-----------------------------------|
|---------------------------|-3-----3---3---3-------------------|
|-2----2-2-2----------------|-2-----2---2---2-------------------|
|-2----2-2-2------5-5-5-5---|-0-----0---0---0-----------2---5---|
|-0----0-0-0------5-5-5-5---|---------------------------2---5---|
|-----------------3-3-3-3---|---------------------------0---3---|


  A5                 G5
|---------8-10-10b12-10b12-10b12---10b12-10b12-|
|----8-10--------------------------------------|
|-/9-------------------------------------------|
|----------------------------------------------|
|----------------------------------------------|
|----------------------------------------------|
|
|----------------------------------------------|
|----------------------------------------------|
|--2----2-2--2---------------------------------|
|--2----2-2--2--------5-----5----5--5----------|
|--0----0-0--0--------5-----5----5--5----------|
|---------------------3-----3----3--3----------|


  D5                           E5         C5
|-10pb11r10-8-10---8----8------8--------------|
|--------------------10---8-10---8-10b12\-----|
|---------------------------------------------|
|---------------------------------------------|
|---------------------------------------------|
|---------------------------------------------|
|
|---------------------------------------------|
|--3--------3----3----3-----------------------|
|--2--------2----2----2--------9----------5---|
|--0--------0----0----0--------9----------5---|
|------------------------------7----------3---|
|---------------------------------------------|


  A5                     G5
|------------------17---------------------|
|------------17-20----17-20b22-20b22------|
|-/19b21----------------------------------|
|-----------------------------------------|
|-----------------------------------------|
|-----------------------------------------|
|
|-----------------------------------------|
|-----------------------------------------|
|---2----2-2--2---------------------------|
|---2----2-2--2-----------5-----5----5-5--|
|---0----0-0--0-----------5-----5----5-5--|
|-------------------------3-----3----3-3--|


  D5                       E5      G5
|-------------------------------------|
|-20b22-----17-20-17----17------------|
|--------------------19----19b21\-----|
|-------------------------------------|
|-------------------------------------|
|-------------------------------------|
|
|-------------------------------------|
|--3----3-3--3------------------------|
|--2----2-2--2------------------------|
|--0----0-0--0--------------2------5--|
|---------------------------2------5--|
|---------------------------0------3--|


  A5                    G5
|-----------------17-------17----20-(20)b22--|
|--------------17----17-20----17-------------|
|-----17-19-20-------------------------------|
|-/19----------------------------------------|
|--------------------------------------------|
|--------------------------------------------|
|
|--------------------------------------------|
|--------------------------------------------|
|---2--2--2--2-------------------------------|
|---2--2--2--2-----------5-----5--5---5------|
|---0--0--0--0-----------5-----5--5---5------|
|------------------------3-----3--3---3------|


  D5                                E5      C5
|-20b22==20r-20b22==20r-20b22-20b22-20b22\-----|
|----------------------------------------------|
|----------------------------------------------|
|----------------------------------------------|
|----------------------------------------------|
|----------------------------------------------|
|
|----------------------------------------------|
|--3----------3------3---3---------------------|
|--2----------2------2---2-----------9------5--|
|--0----------0------0---0-----------9------5--|
|------------------------------------7------3--|
|----------------------------------------------|


  A5                    G5
|-1S5-7---5-------5---5-------------------------|
|-----------8-5-----8---8-5-5---5-----8-5---5---|
|---------------5-------------7---7b9-----7---8-|
|-----------------------------------------------|
|-----------------------------------------------|
|-----------------------------------------------|
|
|-----------------------------------------------|
|-----------------------------------------------|
|-2-2---2---2-----------------------------------|
|-2-2---2---2-----------5-----5-5-5-------------|
|-0-0---0---0-----------5-----5-5-5-------------|
|-----------------------3-----3-3-3-------------|


  D5                                  E5                G5
|----------------------------------------------------------------|
|----------------------------------------------------------------|
|-7-5---5---7-5-----5-------5------------------------------------|
|-----7-----------7-----7-5---7-5---5-7-5---5-7-5----------------|
|---------------------------------7-------7-------7-6-5----------|
|-------------------------------------------------------8b8.5----|
|
|----------------------------------------------------------------|
|-3-------3-----3-----3------------------------------------------|
|-2-------2-----2-----2------------------------------------------|
|-0-------0-----0-----0---------------2-----------------5--------|
|-------------------------------------2-----------------5--------|
|-------------------------------------0-----------------3--------|


  A5                G5
|-----------------------------------------------5-----|
|-------------------------------------------------8-5-|
|-------------5-----5-7-5---5-7-5---5-5-7-(7)b9-------|
|---------7-5---7-5-------7-------7-------------------|
|-----5-7---------------------------------------------|
|-5-8-------------------------------------------------|
|
|-----------------------------------------------------|
|-----------------------------------------------------|
|-2---2-2-2-------------------------------------------|
|-2---2-2-2---------5---------5---5---5---------------|
|-0---0-0-0---------5---------5---5---5---------------|
|-------------------3---------3---3---3---------------|


  D5                                  E5  C5
                                       ~~
|--------------------------------------------------------|
|----------------------13----13-13-13-10--(10)/-17-18-20-|
|-9------12---12---12-----12-----------------------------|
|---/14-(12)-(12)-(12)-----------------------------------|
|--------------------------------------------------------|
|--------------------------------------------------------|
|
|--------------------------------------------------------|
|-3-------3----3----3------------------------------------|
|-2-------2----2----2------------------9----5------------|
|-0-------0----0----0------------------9----5------------|
|--------------------------------------7----3------------|
|--------------------------------------------------------|


  A5                                     G5
|-17-20-17------17---20---17----17-20-17----17---------------------|
|------------20--------------20----------20----20b22=======20r-----|
|---------------------------------------------------------(19)pb21-|
|------------------------------------------------------------------|
|------------------------------------------------------------------|
|------------------------------------------------------------------|
|
|------------------------------------------------------------------|
|------------------------------------------------------------------|
|--2-------2-------2----2------------------------------------------|
|--2-------2-------2----2-----------------5-----5-----5-5----------|
|--0-------0-------0----0-----------------5-----5-----5-5----------|
|-----------------------------------------3-----3-----3-3----------|


  D5                                  E5                G5
|-17-------17-------17-------17-------17-------17-------17-------17-------17--|
|----20b22----20b22----20b22----20b22----20b22----20b22----20b22----20b22-----|
|-----------------------------------------------------------------------------|
|-----------------------------------------------------------------------------|
|-----------------------------------------------------------------------------|
|-----------------------------------------------------------------------------|
|
|-----------------------------------------------------------------------------|
|--3--------3--3-----3--------------------------------------------------------|
|--2--------2--2-----2--------------------------------------------------------|
|--0--------0--0-----0-----------------2-----------------5--------------------|
|--------------------------------------2-----------------5--------------------|
|--------------------------------------0-----------------3--------------------|


  A5                        G5
|-20b22-20b22---20b22-20b22-20b22-20b22---20b22-20b22-|
|-----------------------------------------------------|
|-----------------------------------------------------|
|-----------------------------------------------------|
|-----------------------------------------------------|
|-----------------------------------------------------|
|
|-----------------------------------------------------|
|-----------------------------------------------------|
|--2-----2----2--2------------------------------------|
|--2-----2----2--2-----------5-----5----5--5----------|
|--0-----0----0--0-----------5-----5----5--5----------|
|----------------------------3-----3----3--3----------|


  D5                              E5     C5
|-20b22==(20)r(20)-17-20-17----17----------------|
|---------------------------20----20b22--(20)\---|
|----------------------------------------------x-|
|----------------------------------------------x-|
|------------------------------------------------|
|------------------------------------------------|
|
|------------------------------------------------|
|--3-------3----3---3----------------------------|
|--2-------2----2---2--------------9-------5-----|
|--0-------0----0---0--------------9-------5-----|
|----------------------------------7-------3-----|
|------------------------------------------------|


  A5                   G5
|------------------------------------------------------|
|------------------------------------------------------|
|-7b9======7-7-7-7-7-7-7-7-7-7r7---7pb8.5==7-7-7-7-7-7-|
|------------------------------------------------------|
|------------------------------------------------------|
|------------------------------------------------------|
|
|------------------------------------------------------|
|------------------------------------------------------|
|-2----2-2-2-------------------------------------------|
|-2----2-2-2-----------5-----5---5---------5-----------|
|-0----0-0-0-----------5-----5---5---------5-----------|
|----------------------3-----3---3---------3-----------|


  D5                                  E5          G5
|---------------------------------------------------------------|
|---------------------------------------------------------------|
|-7r7-7pb8==7-7---7-7-7-7-7r7-7pb7.5==7-7-7-7-7r7-7-7-7-7-7-7---|
|---------------------------------------------------------------|
|---------------------------------------------------------------|
|---------------------------------------------------------------|
|
|---------------------------------------------------------------|
|-3---------3---3---3-------------------------------------------|
|-2---------2---2---2-------------------------------------------|
|-0---------0---0---0-----------------2-----------5-------------|
|-------------------------------------2-----------5-------------|
|-------------------------------------0-----------3-------------|


  A5                    G5                     D5                  E5    C5
|--------------------------------------------|---------------------------------|
|--------------------------------------------|---------------------------------|
|-7-5---5-7-5---5----------------------------|---------------------------------|
|-----7-------7---7-5-7-5---5----------------|---------------------------------|
|-------------------------7---7-5------------|---------------------------------|
|---------------------------------5-8-9-10-8-|-8-10-8-0-8---9-10-8-5-8-5-(5)---|
|
|--------------------------------------------|---------------------------------|
|--------------------------------------------|-3------3---3----3---------------|
|-2-2-2---2----------------------------------|-2------2---2----2---9------5----|
|-2-2-2---2-------------5-----5---5-5--------|-0------0---0----0---9------5----|
|-0-0-0---0-------------5-----5---5-5--------|---------------------7------3----|
|-----------------------3-----3---3-3--------|---------------------------------|


  A5             G5               D5           E5   G5
|-------------------------------|-----------------------|
|-(8)------(8)---(8)------(8)---|-(8)-------------------|
|--7b9------7b9---7b9------7b9--|--7b9-----5---7b9--5\--|
|-------------------------------|------------7----------|
|-------------------------------|-----------------------|
|-------------------------------|-----------------------|
|
|-------------------------------|-----------------------|
|-------------------------------|--3---3-3-3------------|
|--2---2-2--2-------------------|--2---2-2-2------------|
|--2---2-2--2-----5---5-5--5----|--0---0-0-0---2----5---|
|--0---0-0--0-----5---5-5--5----|--------------2----5---|
|-----------------3---3-3--3----|--------------0----3---|


  A5                    G5
|-------------------------------------------17-|
|-20--------20----20----20----20---------------|
|-19b21-----19b21-19b21-19b21-19b21---19b21----|
|----------------------------------------------|
|----------------------------------------------|
|----------------------------------------------|
|
|----------------------------------------------|
|----------------------------------------------|
|--2----2-2--2---------------------------------|
|--2----2-2--2-----------5-----5----5--5-------|
|--0----0-0--0-----------5-----5----5--5-------|
|------------------------3-----3----3--3-------|


  D5                    E5     C5
|------------------------------20\---|
|-20b22-----20b22-20b22-20b22--------|
|----------------------------------x-|
|----------------------------------x-|
|------------------------------------|
|------------------------------------|
|
|------------------------------------|
|--3----3-3--3-----------------------|
|--2----2-2--2-----------9------5----|
|--0----0-0--0-----------9------5----|
|------------------------7------3----|
|------------------------------------|


  A5       G5           D5       E5    G5
|---------------------|-------------------|
|---------------------|-------------------|
|---------------------|-------------------|
|---------------------|-------------------|
|----------(5)--------|----------5b6-5-3--|
|-5-----5---5------5--|-5-----5-----------|
|
|---------------------|-------------------|
|---------------------|-3-3-3-3-----------|
|-2-2-2-2-------------|-2-2-2-2-----------|
|-2-2-2-2---5--5-5-5--|-0-0-0-0--2-----5--|
|-0-0-0-0---5--5-5-5--|----------2-----5--|
|-----------3--3-3-3--|----------0-----3--|


  A5       G5           D5            E5  C5
|---------------------|----------------------|
|---------------------|----------------------|
|---------------------|----------------------|
|---------------------|----------------------|
|---------------------|---3-------3---3---3--|
|-5-----5--3h5-5---5--|-5-------5---5---5----|
|
|---------------------|----------------------|
|---------------------|-3---3-3-3------------|
|-2-2-2-2-------------|-2---2-2-2-----9---5--|
|-2-2-2-2--5---5-5-5--|-0---0-0-0-----9---5--|
|-0-0-0-0--5---5-5-5--|---------------7---3--|
|----------3---3-3-3--|----------------------|


  A5       G5           D5          E5    G5
|---------------------|-----------------------|
|---------------------|-----------------------|
|-5-------------------|-7b9-7---5-7-7b9-7-5---|
|-------7--5-6-7---7--|---------------------7-|
|---------------------|-----------------------|
|---------------------|-----------------------|
|
|---------------------|-----------------------|
|---------------------|-3---3-3-3-------------|
|-2-2-2-2-------------|-2---2-2-2-------------|
|-2-2-2-2--5---5-5-5--|-0---0-0-0---2-----5---|
|-0-0-0-0--5---5-5-5--|-------------2-----5---|
|----------3---3-3-3--|-------------0-----3---|


  A5         G5           D5           E5 C5
|-----------------------|--------------------|
|-----------------------|--------------------|
|-----------------------|-7b9-----7b9--5-----|
|-5-7-----7--5-7-----7--|-----------------7--|
|-----------------------|--------------------|
|-----------------------|--------------------|
|
|-----------------------|--------------------|
|-----------------------|-3---3-3-3----------|
|-2---2-2-2-------------|-2---2-2-2----9--5--|
|-2---2-2-2--5---5-5-5--|-0---0-0-0----9--5--|
|-0---0-0-0--5---5-5-5--|--------------7--3--|
|------------3---3-3-3--|--------------------|


  A5           G5                 D5               E5     G5
|-------------------------------|--------------------------------|
|-5-------5-----8---------8-----|-10--------10-----13-----13-----|
|-7b9-----7b9--10b12-----10b12--|-12b14-----12b14--15b17--15b17--|
|-------------------------------|--------------------------------|
|-------------------------------|--------------------------------|
|-------------------------------|--------------------------------|
|
|-------------------------------|--------------------------------|
|-------------------------------|--3----3-3--3-------------------|
|-2---2-2-2---------------------|--2----2-2--2-------------------|
|-2---2-2-2-----5----5-5--5-----|--0----0-0--0------2------5-----|
|-0---0-0-0-----5----5-5--5-----|-------------------2------5-----|
|---------------3----3-3--3-----|-------------------0------3-----|


  A5                                      G5                                        D5   
                  E5     C5
|---------------------------------------------------------------------------------
|-15----15------15------15----15----15----17----17------17------17----17----17----
|-17b19-17b19---17b19---17b19-17b19-17b19-19b21-19b21---19b21---19b21-19b21-19b21-
|---------------------------------------------------------------------------------
|---------------------------------------------------------------------------------
|---------------------------------------------------------------------------------
|
|-------17----------17----20b22--20b22---|
|-17----------17-20----17----------------|
|-19b21----19----------------------------|
|----------------------------------------|
|----------------------------------------|
|----------------------------------------|

|
|---------------------------------------------------------------------------------
|---------------------------------------------------------------------------------
|--2----------2-------2--2--------------------------------------------------------
|--2----------2-------2--2-----------------5----------5-------5--5----------------
|--0----------0-------0--0-----------------5----------5-------5--5----------------
|------------------------------------------3----------3-------3--3----------------

|----------------------------------------|
|--3-----3--3--3-------------------------|
|--2-----2--2--2-----------9------5------|
|--0-----0--0--0-----------9------5------|
|----------------------------------------|
|--------------------------7------3------|


  A5            G5           D5         E5  G5
             ~~~~~~~~~~~~~~~~~~~~~~~~~~~~~~~~~~~~
|-20b22-----20--20-----20--|-20-----20--20--20--|
|--------------------------|--------------------|
|--------------------------|--------------------|
|--------------------------|--------------------|
|--------------------------|--------------------|
|--------------------------|--------------------|
|
|--------------------------|--------------------|
|--------------------------|--3-3-3--3----------|
|--2----2-2--2-------------|--2-2-2--2----------|
|--2----2-2--2---5-5-5--5--|--0-0-0--0---2---5--|
|--0----0-0--0---5-5-5--5--|-------------2---5--|
|----------------3-3-3--3--|-------------0---3--|


  A5         G5           D5         E5  C5
 ~~~~~~~~~~~~~~~~~~~~~~~~~~~~~~~~~~~~~~~
|-20-----20--20-----20--|-20-----20--20-----|
|-----------------------|-------------------|
|-----------------------|----------------x--|
|-----------------------|----------------x--|
|-----------------------|-------------------|
|-----------------------|-------------------|
|
|-----------------------|-------------------|
|-----------------------|--3-3-3--3---------|
|--2-2-2--2-------------|--2-2-2--2---9--5--|
|--2-2-2--2---5-5-5--5--|--0-0-0--0---9--5--|
|--0-0-0--0---5-5-5--5--|-------------7--3--|
|-------------3-3-3--3--|-------------------|


  A5        G5           D5         E5    G5
|----------------------|---------------------|
|--------5----------5--|---------5--------5--|
|--------5----------5--|---------5--------5--|
|-/7--------7-5-7------|-7-5-7------7-5-7----|
|----------------------|---------------------|
|----------------------|---------------------|
|
|----------------------|---------------------|
|----------------------|-3---3-3-3-----------|
|--2-2-2-2-------------|-2---2-2-2-----------|
|--2-2-2-2--5---5-5-5--|-0---0-0-0--2-----5--|
|--0-0-0-0--5---5-5-5--|------------2-----5--|
|-----------3---3-3-3--|------------0-----3--|


  A5         G5              D5          E5    C5
|--------------------------|------------------------|
|---------5----------5-----|---5---------5-------5--|
|---------5----------5---5-|---5-----5---5---5---5--|
|-7-5-7------7-5-7-----7---|-7-----7---7---7---7----|
|--------------------------|------------------------|
|--------------------------|------------------------|
|
|--------------------------|------------------------|
|--------------------------|-3-3-3-3----------------|
|-2---2-2-2----------------|-2-2-2-2-----9-----5----|
|-2---2-2-2--5---5-5-5-----|-0-0-0-0-----9-----5----|
|-0---0-0-0--5---5-5-5-----|-------------7-----3----|
|------------3---3-3-3-----|------------------------|


  A5            G5            D5        E5    G5
|---------------------------|-----------------------|
|---------5-------5---------|-5-------5-------5-----|
|---5-----5---5---5-----5---|-5---5---5---5---5---5-|
|-7---7-----7---7-----7---7-|---7---7---7---7---7---|
|---------------------------|-----------------------|
|---------------------------|-----------------------|
|
|---------------------------|-----------------------|
|---------------------------|-3-3-3-3---------------|
|-2---2-2-2-----------------|-2-2-2-2---------------|
|-2---2-2-2-----5-5-5-5-----|-0-0-0-0---2-----5-----|
|-0---0-0-0-----5-5-5-5-----|-----------2-----5-----|
|---------------3-3-3-3-----|-----------0-----3-----|


  A5       G5              D5          E5    C5
|------------------------|-------------------------5-|
|------------------------|---------------------5-8---|
|-------5----------5-7b9-|-5-----------5-7b9-7-------|
|-7--------7-x-7---------|-------7-5-7---------------|
|------------------------|---------------------------|
|------------------------|---------------------------|
|
|------------------------|---------------------------|
|------------------------|-3-3-3-3-------------------|
|-2-2-2-2----------------|-2-2-2-2-----9-----5-------|
|-2-2-2-2--5---5-5-5-----|-0-0-0-0-----9-----5-------|
|-0-0-0-0--5---5-5-5-----|-------------7-----3-------|
|----------3---3-3-3-----|---------------------------|


  A5                 G5            D5         E5 G5
|--------------------------------|------------------|
|-8-(8)b10==(8)------(8)r--------|-[8]--------------|
|--------------------------------|------------------|
|--------------------------------|------------------|
|--------------------------------|------------------|
|--------------------------------|------------------|
|
|--------------------------------|------------------|
|--------------------------------|--3--3-3-3--------|
|-2----------2--2-2--------------|--2--2-2-2--------|
|-2----------2--2-2---5---5-5-5--|--0--0-0-0--2--5--|
|-0----------0--0-0---5---5-5-5--|------------2--5--|
|---------------------3---3-3-3--|------------0--3--|


  A5         G5         D5         E5 C5
|---------------------|--------------------*|
|-(8)-----------------|-(8)----------------*|
|---------------------|--------------------*|
|---------------------|--------------------*|
|---------------------|--------------------*|
|---------------------|--------------------*|
|
|---------------------|--------------------*|
|---------------------|--3--3-3-3----------*|
|--2--2-2-2-----------|--2--2-2-2--9--5----*|
|--2--2-2-2--5-5-5-5--|--0--0-0-0--9--5----*|
|--0--0-0-0--5-5-5-5--|------------7--3----*|
|------------3-3-3-3--|--------------------*|
Tap to rate this tab
 
# A B C D E F G H I J K L M N O P Q R S T U V W X Y Z