Guitaretab - guitar tabs
Song name
# A B C D E F G H I J K L M N O P Q R S T U V W X Y Z

Misc Soundtrack - Hancock - Mary Brings Meatballs tab

----------------------------------------------------------------------------
			Mary Brings Meatballs  John Powell
----------------------------------------------------------------------------
Tabbed by: Em.sss
Email: emmy2615@gmail.com

Tuning: Standard

This is just the first guitar part. I'm still working on the chords for second
guitar, nevertheless, enjoy!

e|-------------------------------------------------------------------------|
B|----------------------------------------------10--8----------------------|
G|----10--9--7------------7--9-----7------7--10------------10--9--7----9---|
D|-------------10--7--10--------10----------------------------------10---7-|
A|-------------------------------------------------------------------------|
E|-------------------------------------------------------------------------|

e|--------------------------------------10---------------------------------|
B|---------------------------8--10--11-------------------------------------|
G|-10--9--7-----------7--9-------------------------------------------------|
D|----------10--7--10------------------------------------------------------|
A|-------------------------------------------------------------------------|
E|-------------------------------------------------------------------------|
[ Tab from: http://www.guitaretab.com/m/misc-soundtrack/115354.html ]
e|-------------------------------------------------------------------------|
B|-------10--8-------------------10--8-------------------------------------|
G|-7--10-------10\9--7-----7--10------10\9--7------------------------------|
D|--------------------------------------------10--7------------------------|
A|-------------------------------------------------------------------------|
E|-------------------------------------------------------------------------|

e|----------8--------------------------------------------------------------|
B|----8--10---10\8--10------------------------------------8----------------|
G|-10-------------------------7--9------7-----9------7------10--9--7-------|
D|----------------------------------10-----------10------------------------|
A|-------------------------------------------------------------------------|
E|-------------------------------------------------------------------------|

e|-------------------------------------------------------------------------|
B|-------------------------------------------------------------------------|
G|-7--9------7----7--9------7----------------------------------------------|
D|-------10-------------10-------------------------------------------------|
A|-------------------------------------------------------------------------|
E|-------------------------------------------------------------------------|



| /  slide up
| \  slide down
| h  hammer-on
| p  pull-off
| ~  vibrato
| +  harmonic
| x  Mute note
============================================================================

Related for Hancock - Mary Brings Meatballs tab