Song name
# A B C D E F G H I J K L M N O P Q R S T U V W X Y Z

Misc Soundtrack - Once Were Warriors Theme tab

-------------------------------------------------------------------------------
			     Once Were Warriors Theme - Tama Renata
-------------------------------------------------------------------------------

             Devourke
Tabbed by:^^^That Guy^^^
Email:rhcp_619@hotmail.com

E|----------------------------------------------------------------------------|
B|-------------------------8--------------------------------------------------|
G|-----------7--7h9---7h9----9-7------------------7---------------------------|
D|<12>----/9----------------------9-7-7h9--\---/9---7h9-7-----7-9-5h7-5-----9-|
A|<12>------------------------------------------------------------------7-5-7-|
E|<12>----------------------------------------------------------------------0-|


e|----------------------------------------------------------------------|
B|5---8-----10----------------------------------------------------------|
G|7^5-10^12-12^14-------------------------------------------------------|
D|----------------------------------------------------------------------|
A|----------------------------------------------------------------------|
E|----------------------------------------------------------------------|

e|----------------15------------------------------------------------------------|
B|----15-17---/17----17-15---------------------15-------------------------------|
G|/16----------------------16-14-14h16---14/16----14h16-14--14-16-12h14---------|
D|---------------------------------------------------------------------14-12-14-|
A|------------------------------------------------------------------------------|
E|------------------------------------------------------------------------------|
Tap to rate this tab
# A B C D E F G H I J K L M N O P Q R S T U V W X Y Z