Song name
# A B C D E F G H I J K L M N O P Q R S T U V W X Y Z

Misc Soundtrack - Sindbad The Sailor Theme tab

-------------------------------------------------------------------------------
			Sindbad The Sailor - Rock On (Movie)
-------------------------------------------------------------------------------
Tabbed by:Striking Viking
Email:strikin_viking@yahoo.com

Tuning:E A D G B e

  This Goes on for the intro part.
e|---------------------------------------------------------------------------|
B|-8-8-8-8-8-8-8---6-6-6-6-6-6-6-6-6-6-6-6-6-6-6-6---------------------------|
G|-7-7-7-7-7-7-7---5-5-5-5-5-5-5-5-5-5-5-5-5-5-5-5--5-5-5-5-5-5-5-5----------|
D|--------------------------------------------------5-5-5-5-5-5-5-5----------|
A|---------------------------------------------------------------------------|
E|---------------------------------------------------------------------------|

  Lead For Intro -- For couple of times.(5) do not play 1st time
e|---------------------------------------------------------------------------|
B|---------------------------------------------------------------------------|
G|---------------------------------------------------------------------------|
D|(5)-----------------3------------2-----------------------------------------|
A|--------------------------------------------------3------------------------|
E|---------------------------------------------------------------------------|

  Guitar for synth - couple of times
e|-----10----------10--8-----8-----------8--7-----7-----------7--------------|
B|-8-------8-8-8-8--------6-----6-6-6-6--------5-----5-5-5-5-----3---3---3---|
G|-----------------------------------------------------------------0---0---0-|
D|---------------------------------------------------------------------------|
A|---------------------------------------------------------------------------|
E|---------------------------------------------------------------------------|

  Verse
e|---------------------------------------------------------------------------|
B|-8---------------6---------------6-----------------------------------------|
G|-7---------------5---------------5----------------5------------------------|
D|-5---------------3---------------3----------------5------------------------|
A|--------------------------------------------------3------------------------|
E|---------------------------------------------------------------------------|

  Interlude
e|---------------------------------------------------------------------------|
B|---------------------------------------------------------------------------|
G|-7---------------9---------------7----------------5------------------------|
D|-7---------------9---------------7----------------5------------------------|
A|-5---------------7---------------5----------------3------------------------|
E|---------------------------------------------------------------------------|

  Chorus
e|---------------------------------------------------------------------------|
B|---------------------------------------------------------------------------|
G|-12--------------10--------------9----------------7------------------------|
D|-12--------------10--------------9----------------7------------------------|
A|-10--------------8---------------7----------------5------------------------|
E|---------------------------------------------------------------------------|


Thats it folks. lead may b some time later as not yet figured completely. if someones 
it you're welcome
to add it. This is my first  work so pls spare me if u find something wrong, all your 
hate.......
are welcomed, mail me : strikin_viking@yahoo.com

===============================================================================
Tap to rate this tab
 
# A B C D E F G H I J K L M N O P Q R S T U V W X Y Z