Song name
# A B C D E F G H I J K L M N O P Q R S T U V W X Y Z

Misc Soundtrack - Spiderman 2 - Ordinary tab

Help us improve GuitareTab! Take a short survey!
Ordinary
Train
Tuning: Drop D

Piano, then Drums and Bass
Guitar Enters With Verse

Intro
|-------------------------------------------------8---|
|------------------9h11-9----11-----------------------|
|-5-7-9----12----9--------------12----9----7-9--------|
|-----------------------------------------------------|
|-----------------------------------------------

  Verse (listen to song for rhythm)
e|--------------------------------|  e|---------------------------------|  
B|--------------------------------|  B|---------------------------------|
G|--------------------------------|  G|---------------------------------|
D|--------------------------------|  D|---------------------------------|
A|---0-0-0-0----6-6/8--0-0-0-0----|  A|---0-0-0-0----6-6/8--0-0-0-0--6--|
E|---0-0-0-0----6-6/8--0-0-0-0----|  E|---0-0-0-0----6-6/8--0-0-0-0--6--|


Chorus
e|------------------------------|x2  e|------------------------------|x2
B|------------------------------|    B|------------------------------|
G|------------------------------|    G|------------------------------|
D|------------------------------|    D|------------------------------|
A|----3-3-3--8-8-8-8---10-10-10-|    A|----4-4-4--8-8-8-8---10-10-10-|
E|----3-3-3--8-8-8-8---10-10-10-|    E|----4-4-4--8-8-8-8---10-10-10-|


Outro
e|--------------|    
B|--------------|
G|--------------|
D|--------------|
A|----0-0-0-0-0-|
E|----0-0-0-0-0-|

Order:
intro
Verse
Chorus 
Verse (Guitar 2 plays something in background, but I can't figure it out)
Chorus
Bridge (piano)
Outro

Related for Spiderman 2 - Ordinary tab