Guitaretab - guitar tabs
Song name
# A B C D E F G H I J K L M N O P Q R S T U V W X Y Z

Misc Soundtrack - Master And Commander - String Quintet In C Major tab

Master and Commander: String Quintet in C Major

This is off the end of the movie Master and Commander: the Far Side of The World, where the doctor
and the captain are playing their duet. This is the background chords: G E D

I play this with two fingers one plucking each string to get the tone like this.

|-3-3-3-3-3----------------------3-|
|-3-3-3-3-3---5-5-5-5---7-7--5-7-3-|
|-------------5-5-5-5---7-7--5-7---|
|----------------------------------|
|----------------------------------|

That is played while the lead plays over:
[ Tab from: http://www.guitaretab.com/m/misc-soundtrack/117050.html ]
|-----------------------------------------------------------------------------------------------|
|-----------------------------------------------------------------------------------------------|
|---9--7---------------7---7-9--7h9p7-----------------------------------------------------------|
|--9-9---9--7h9p7-5-----10------------10-----10-9-10-12-14-12-10h12p10-9-----9-10-9-7-5-5s10-7--|
|-----------------------------------------------------------------------------------------------|
|-----------------------------------------------------------------------------------------------|


-----------------------------------------------------------------------------------------------|
----------------------------------------------8------------------------------------------------|
----7---7-9-7--------------------------------7-7-9-8h9p8---------------------------------------|
------10-------10-9-7---9s10s9-7h9p7-5-------------------10----10-9-10-12-14-12-9h10p9-7h9p7-5-|
-----------------------------------------------------------------------------------------------|
-----------------------------------------------------------------------------------------------|

----------------------------------------------------------------|
----------------------------------------------------------------|
------------------------------7--7-9-7--------------------------|
-9-10-9-7-5--------------------10------10-9-7--9s10s9-7h9p7-5---|
------------5--9h10p9-7h9p7-5-----------------------------------|
----------------------------------------------------------------|

Well Enjoy!
Related for Master And Commander - String Quintet In C Major tab
×
Master And Commander - String Quintet In C Major