Song name
# A B C D E F G H I J K L M N O P Q R S T U V W X Y Z

Misc Soundtrack - Terminator 2 Judgement Day - Desert Suite tab

Terminator 2 Jugement Day - Desert Suite

It is in the part where John Connor, Sarah Connor and
The Terminator is in the desert.
Just before Sarah has the dream about Jugement Day.
It isnt finished like but i will keep you guitarists 
posted when i send the next tab with more on.
oh and Read Below after the tab its important

Thank You for your time.


Snake1989


E|----------------------------------------------------|
A|----------5---6--------------------------5----------|
D|------------------5------------------7-------5------|
G|------7--------------------------7-------5---5------|
B|--5--------------------------5----------------------|
E|----------------------------------------------------|

                  |Strum Down/Up|             |Strum Down/Up|
E|-------------------------------------------------------|
A|------------5---6---8--------------------5---6---8-----|
D|--------7-------3---5----------------7-------3---5-----|
G|----7-----------0---0------------7-----------0---0-----|
B|5----------------------------5-------------------------|
E|-------------------------------------------------------|

Music Composed by Snake1989

Music Composed Originally By Brad Fiedel

But i had to listen to the Soundtrack and copy off it on guitar 
im positive it sounds exactly the same as it
Put the DVD on and go to the desert bit on
Terminator 2 just before Sarah Connors 
Dream or Do a Cover on the Soundtrack 
i think its called Desert Suite on 
Terminator 2 Jugement Day Soundtrack 
if it dont sound exactly Right Contact me, Snake-06@hotmail.co.uk 
and i shall reply asap but i think it sounds exactle the same.

oh 1 more thing  near the end of the tab 
were its 630 850 you have to strum Down/Up on it which ever 
sounds better but its best if you listen to it first and then play it.

Thanks

Snake1989
Tap to rate this tab
 
# A B C D E F G H I J K L M N O P Q R S T U V W X Y Z