Song name
# A B C D E F G H I J K L M N O P Q R S T U V W X Y Z

Misc Soundtrack - The Addams Family Theme tab

This is my first tab so sorry if it's wrong

e|-------------------------------------------------------------------------|
B|-------------------------------------------------------------------------|
G|-------------------------------------------------------------------------|
D|------------------0-----------0------------0-----------------------------|
A|--0-2-3------0-2-4------0-2-4--------0-2-4-----0-2-3---------------------|
E|-3--------------------------------------------3--------------------------|

e|----0----------------------------------0---------------------------------|
B|--1---1-----3---------0-3-0-----1-----1--1-----3---------1-0-----0-1-----|
G|-0------2------------3------0-2------0-----2-----------------0-2---------|
D|----------3----------------------------------3---------------------------|
A|-------------------------------------------------------------------------|
E|-------------------------------------------------------------------------|

Tap to rate this tab
 
# A B C D E F G H I J K L M N O P Q R S T U V W X Y Z