Song name
# A B C D E F G H I J K L M N O P Q R S T U V W X Y Z

Misc Soundtrack - Gladiator - Honor Him tab

----------------------------------------------------------------------------
			     Honor Him - Hans Zimmer
                                 Gladiator Theme
----------------------------------------------------------------------------
Tabbed by: Palludan
Email: jakob@pallustris.com

Tuning: Standard


Two ways of playing this...

1st:

e|-------2-----5-----------------------------0-----------------------------|
B|----2----------------------------------2---------------------------------|
G|-------------------4-----2--1------4------------2--1---------------------|
D|--------------------------------------------------------4----------------|
A|-------------------------------------------------------------------------|
E|-------------------------------------------------------------------------|


e|-------2-----5-----------------------------------------------------------|
B|----2--------------4-----2--1------1-------------------------------------|
G|----------------------------------------4---2---4------------------------|
D|-------------------------------------------------------------------------|
A|-------------------------------------------------------------------------|
E|-------------------------------------------------------------------------|
                repeat


2nd:

e|-------------------------------------------------------------------------|
B|----------10-------------------------------------------------------------|
G|-------11------------------------------9---------------------------------|
D|----11---------9-----7--6------9---11-------7---6---4--------------------|
A|-------------------------------------------------------------------------|
E|-------------------------------------------------------------------------|


e|-------------------------------------------------------------------------|
B|----------10-------------------------------------------------------------|
G|-------11----------------------------------------------------------------|
D|----11--------9-----7--6-----6----4---2---4------------------------------|
A|-------------------------------------------------------------------------|
E|-------------------------------------------------------------------------|
                repeat

Tap to rate this tab
# A B C D E F G H I J K L M N O P Q R S T U V W X Y Z