Song name
# A B C D E F G H I J K L M N O P Q R S T U V W X Y Z

Misc Soundtrack - The Chronicles Of Narnia ? A Narnian Lullaby tab

Help us improve GuitareTab! Take a short survey!
e|----------------------------------|
B|----------------10----------------|
G|---9h11-9h11-12-----12-11-9-11-8--|
D|-9--------------------------------|
A|----------------------------------|
E|----------------------------------|

e|----------------------------------|
B|----------------10----------12----|
G|---9h11-9h11-12-----12-11-9----11-|
D|-9--------------------------------|
A|----------------------------------|
E|----------------------------------|

e|----------------------------------|
B|----------------10----------------|
G|---9h11-9h11-12-----12-11-9-11-8--|
D|-9--------------------------------|
A|----------------------------------|
E|----------------------------------|

e|-----------------------------------|
B|----------------10----------13-----|
G|---9h11-9h11-12-----12-11-9----12--|
D|-9---------------------------------|
A|-----------------------------------|
E|-----------------------------------|

e|----------------------------------|
B|-------10-12-13p12----------------|
G|---12--------------11-12p11---9~--|Let last note ring
D|----------------------------------|
A|----------------------------------|
E|----------------------------------|

Have Fun!!!
PLEASE RATE
Related for The Chronicles Of Narnia ? A Narnian Lullaby tab