Song name
# A B C D E F G H I J K L M N O P Q R S T U V W X Y Z

Misc Soundtrack - James Bond Theme tab

This is the James Bond Theme Song fully tabbed for guitar. You can check out my 
of the song at yannick.dmusic.com.
The stuff in () is optional.

Guitar 1 (clean) starts
e|------------|
B|-0--1--2--1-|
G|-0--0--0--0-|
D|-2--2--2--2-| x13
A|------------|
E|------------|

Guitar 2 (Dist.) comes in after the second time

e|---------------------------------|
B|---------------------------------|
G|---------------------------------|
D|---------------------------------|x2
A|---------------------------------|
E|-0-2-2-2-2-0-0-0-0-3-3-3-3-2-2-2-|

e|------------------------------------------|
B|------------------------------------------|
G|------------------------------------------|
D|---------------------------------1-0------|
A|-------------------------------------2-0-2|
E|-0-2-2-2-2-0-0-0-0-3-3-3-3-2-1-0----------|

e|---------------------------------|
B|---------------------------------|
G|---------------------------------|
D|---------------------------------|x2
A|---------------------------------|
E|-0-2-2-2-2-0-0-0-0-3-3-3-3-2-2-2-|

e|------------------------------------------|
B|------------------------------------------|
G|------------------------------------------|
D|---------------------------------1-0------|
A|-------------------------------------2-0-2|
E|-0-2-2-2-2-0-0-0-0-3-3-3-3-2-1-0----------|

wait for git. 1 to finish and then play Guitar 2 + 3 together.

Guitar 2 (Dist.)
e|------------------------------------------------------------------------------------|
B|-----4-3--------------------------------------------4-3-----------------------------|
G|-----------3-4--------------------------------------------3-4-----------------------|
D|-2-5-----5-----------5h7p5-4---2----------------2-5-----5-------------5h7p5-4---1-2-|
A|-----------------------------2---4--------------------------------------------2-----|
E|------------------------------------------------------------------------------------|

Guitar 3 (Dist.)

e|------------------------------------------------------------------------------------|
B|--------------------------------------5-3-------------------------------------------|
G|------------------------------------------5-4-2-------------------------------------|
D|------------------------------------2-----------------------------------------------|
A|------------------------------------------------------------------------------------|
E|---------------3-2-0--------------------------------------------3-2-0---------------|

Play both guitars again an add guitar 4 (it plays the same thing as guitar 2 just one 
higher)

Guitar 4 (Dist.)

e|-------------------------------------------------------------------------------------|
B|-------16-15-------------------------------------16-15-------------------------------|
G|----------------15-16-------------------------------------15-16----------------------|
D|-14-17-------17-------17h19p17-16----14----------------17-------17h19p17-16----13-14-|
A|----------------------------------14----16-14-17----------------------------14-------|
E|-------------------------------------------------------------------------------------|

Then Guitars 2+3 (+4) play this.

e|--------------------------------|
B|--------------------------------|
G|-9-9-9-11-9-11-12-12-12-11-9-11-|
D|--------------------------------|x2
A|-7-7-7-9--7-9--10-10-10-9--7-9--|
E|--------------------------------|

e|-----------------------------|
B|-----------------------------|
G|-16-16---16-16---16-16-16-16-|
D|-16-16-9-16-16-9-16-16-16-16-|
A|-14-14-9-14-14-9-14-14-14-14-|
E|-------7-------7-------------|

Then the first guitar comes in again:

Guitar 1 (clean)
e|------------|
B|-0--1--2--1-|
G|-0--0--0--0-|
D|-2--2--2--2-| x5
A|------------|
E|------------|

Guitar 2 (Dist.) comes in on the second time

e|---------------------------------|
B|---------------------------------|
G|---------------------------------|
D|---------------------------------|x2
A|---------------------------------|
E|-0-2-2-2-2-0-0-0-0-3-3-3-3-2-2-2-|

e|------------------------------------------|
B|------------------------------------------|
G|------------------------------------------|
D|---------------------------------1-0------|
A|-------------------------------------2-0-2|
E|-0-2-2-2-2-0-0-0-0-3-3-3-3-2-1-0----------|

And then play the outro
Guitar 2+3 together


Guitar 2 (Dist.)
e|------------------------------7-|
B|-----4-3-----7-6------10-9----8-|
G|------------------------------8-|
D|-2-5-----5-8-----8-11---------7-|
A|--------------------------------|
E|--------------------------------|

Guitar 3 (Dist.)
e|-----11-10-------14-13-------17-16----7-|
B|--------------------------------------8-|
G|9-12-------12-15-------15-18----------8-|
D|--------------------------------------7-|
A|----------------------------------------|
E|----------------------------------------|

That's it! Have fun!
Tap to rate this tab
# A B C D E F G H I J K L M N O P Q R S T U V W X Y Z