Song name
# A B C D E F G H I J K L M N O P Q R S T U V W X Y Z

Misc Soundtrack - Mission Impossible 2 Theme tab

So here i am 2 save u all frum playin f*cked up tunes....
Alrite then i had enough of screw ups f*ckin this song up this was like the first song i learnt to play good on the guitar its simple enough u idiots! rite

clean riff
===========

e|---------------------------------------------------------|
B|---------------------------------------------------------|
G|----------2-4--------------------------------------------|
D|-4-4-4--4------4-4-4-4-2-3-------------------------------|
A|---------------------------------------------------------|
E|---------------------------------------------------------|


verse riff
===========

e|--17-14-----17-14----17-14----17-14----------------------|
B|--------14--------13-------12-------15-15-15-15-14-------|
G|---------------------------------------------------------|
D|---------------------------------------------------------|
A|---------------------------------------------------------|
E|---------------------------------------------------------|


pre-chorus
===========

e|---------------------------------------------------------|
B|---------------------------------------------------------|
G|---------------------------------------------------------|
D|---------------------------------------------------------|
A|------------------0-2------------------------------------|
E|--0-2-0-2-0-2-0-2-----0-2-0-2-0-2-0-1--------------------|

spose go like that in this part but works better i think if u use hammer-ons see wot u think....

============================================================

If u want the rest just ask n ill put it on sum time if u cant figure it out soz for callin u bunch of rems idiots but this is a fair simple song 2 play i mean even i can play it.........k......... have a gr8 time with this wicked tab cya...............DaNnI hOuGhToN
Tap to rate this tab
 
# A B C D E F G H I J K L M N O P Q R S T U V W X Y Z