Song name
# A B C D E F G H I J K L M N O P Q R S T U V W X Y Z

Misc Soundtrack - Batman Theme tab

these are all eighth notes

|----------------------------------|
|----------------------------------|
|----------------------------------|
|----------------------------------|
|--9-9-8-8-7-7-8-8-9-9-8-8-7-7-8-8-|
|--7-7-6-6-5-5-6-6-7-7-6-6-5-5-6-6-|

|--------------------------------------------------|
|--------------------------------------------------|
|--------------------------------------------------|
|--14-14-13-13-12-12-13-13-14-14-13-13-12-12-13-13-|
|--12-12-11-11-10-10-11-11-12-12-11-11-10-10-11-11-|
|--------------------------------------------------|

|-----------------------------------------------------|
|-----------------------------------------------------|
|-----------------------------------------------------|
|-----------------------------------------------------|
|--9-9-8-8-7-7-8-8----9---9~------7---7~------2---2~--|
|--7-7-6-6-5-5-6-6----7---7~------5---5~------0---0~--|
                     BATMAN!!     BATMAN!!    batman...

Repeat From Beginning X Whatever


Hope You Like It!   Drop Me A Rating Please, Greatly Appreciated!
Tab By: Diablomastabarb
diablo_masta_barbarian@hotmail.com
Tap to rate this tab
 
# A B C D E F G H I J K L M N O P Q R S T U V W X Y Z