Guitaretab - guitar tabs
Song name
# A B C D E F G H I J K L M N O P Q R S T U V W X Y Z

Misc Soundtrack - Forrest Gump Theme tab

-------------------------------------------------------------------------------
		      Forrest Gump Theme - Misc Soundtrack
-------------------------------------------------------------------------------


From:   Conrad Szczuka [wing3r@gmx.de]
Sent:   Tuesday, July 12, 2008 4:29 PM

i think you play it like his:
[ Tab from: http://www.guitaretab.com/m/misc-soundtrack/12391.html ]
[Intro]
e---------------------|
B-----3--3--3--3------|
G-0-------------------|
D---------------------|
A---------------------|
E---------------------|


 [main part]
e--------------------3------------------0--0-----0-----------------------|
B-----0--3--3--0--3-----3--0---------------------------------------------|
G-0-------------------------------5--7--------7--------------------------|
D------------------------------------------------------------------------|
A------------------------------------------------------------------------|
E------------------------------------------------------------------------|
Related for Forrest Gump Theme tab
Advertisement will be closed in 10 seconds