Guitaretab - guitar tabs
Song name
# A B C D E F G H I J K L M N O P Q R S T U V W X Y Z

Misc Soundtrack - Power Rangers Theme tab

Power Rangers Theme

Guitar 1-lead
Guitar 2-Rhythm

[Tuning—DADGBe](PM)-palm mute (/)-slide up (h)-hammer on (p)-pull off

 Intro:
 (Guitar 1)—(x8) except 8time doesn’t play
                                 |-----|
|-----------------------------------------|
|-----------------------------------------|
|-----------------------------------------|
|------14-----14-----14------14---14h15---|
|------14-----14-----14------14---14h15---|
|--0-0-14-0-0-14-0-0-14--0-0-14---14h15---|
PM . .    . .    . .    . .                \
                                            [pickslide at end]
 (Guitar 2) –(x7)                          /
|-----------------------------------------|
|-----------------------------------------|
|--2-2-2-2-2-2-2-2-2--2-2-2---2/3---------|
|--2-2-2-2-2-2-2-2-2--2-2-2---2/3---------|
|--0-0-0-0-0-0-0-0-0--0-0-0---0h1---------|
|-----------------------------------------|
PM . .   . .   . .    . .


  (Guitar 1)
|-----------------------------------------|
|-----------------------------12h7p0-(x4)-|
|--12h9p0-(x4)--14h11p0-(x4)--------------|
|-----------------------------------------|
|-----------------------------------------|
|-----------------------------------------|

 (Guitar 2)
|-----------------------------------|
|-----------------------------------|
|------------7-7-7-7----------------|
|--10--------7-7-7-7-(x4)--8--------|
|--10-(x16)--5-5-5-5-------8-(x16)--|
|--10----------------------8--------|

 (Guitar 1)
|----------|
|--12h9p0--|
|----------| (x4)
|----------|
|----------|
|----------|

(Guitar 2)
|-------------------|
|-------------------|
|--9----------------|
|--9-(x9)--12-------|
|--7-------12-(x7)--|
|----------12-------|

 (Guitar 1)
|----------|
|--13h8p0--|
|----------| (x8)
|----------|
|----------|
|----------|

 (Guitar 2)
|------|
|------|
|------| (x32)
|--10--|
|--10--|
|--10--|

 (Guitar 1)
|------|
|--12--|
|------|let ring
|------|
|------|
|------|
[ Tab from: http://www.guitaretab.com/m/misc-soundtrack/127140.html ]
 (Guitar 2)
|-----|
|-----|
|-----|let ring
|--9--|
|--9--|
|--9--|


 Main Theme:
 Part 1:

 (Guitar 1)
|-----19-17---------------19-17--------|
|--17-------19-20------17-------20-19--|
|--------------------------------------|
|--------------------------------------|
|--------------------------------------|
|--------------------------------------|

 (Guitar 2)(not positive on the part)
|----------------------------------------------------------------|
|----------------------------------------------------------------|
|----------------------------------------------------------------|
|--1212-12-12-12-12-10-9-9-99-9-1010-11-11-11-14-14-14-14-14-14--|
|--1212-12-12-12-12-10-9-9-99-9-1010-11-11-11-14-14-14-14-14-14--|
|--1212-12-12-12-12-10-9-9-99-9-1010-11-11-11-14-14-14-14-14-14--|
PM . .     .     .     .   ..   . .     .     .     .     .

 (Guitar 1)
|---------------------|
|---------------------|
|---------------------|
|-10-10-8-10-13-10----| (x2)
|-10-10-8-10-13-10----|
|--8--8-6--8-11-8-----|
  "Go-go Power Rangers! Go go Power Rangers!"

 Part 2

 (Guitar 1)
|--21--|
|------|
|------|(Let ring or tremelo pick)
|------|
|------|
|------|

 (Guitar 2)
|--------------------------------------------------------|
|--------------------------------------------------------|
|--------------------------------------------------------|
|--1515-15-15-15-1515-15-15-16-16-16-161616161616161616--|
|--1515-15-15-15-1515-15-15-16-16-16-161616161616161616--|
|--1515-15-15-15-1515-15-15-16-16-16-161616161616161616--|
PM * *     *     * *  *     *     *

 (Guitar 1)
|---------------------------------------------------------|
|---------------------------------------------------------|
|--12-12-12-12-14-12---13--13-13--13-13---13-13-15-12-11--|
|--12-12-12-12-14-12---13--13-13--13-13---13-13-15-12-11--|
|--10-10-10-10-12-10---11--11-11--11-11---11-11-13-10-9---|
|---------------------------------------------------------|
  "Go-go Power Rangers,You Mighty Morphin Power Rangers!"

Related for Power Rangers Theme tab
Advertisement will be closed in 10 seconds