Song name
# A B C D E F G H I J K L M N O P Q R S T U V W X Y Z

Misc Soundtrack - Scooby-doo Theme tab

----------------------------------------------------------------------------
			     SONG NAME - Band Name
----------------------------------------------------------------------------
Tabbed by: The Leader
Email:

Tuning:Standard

e|-0-0---------------------0-------------0--1-0-1-0-1-0-1-0-1-0-1-0-1-1-0---|
B|-----3-3-1---3-5-0---------3-1-1---1-3------------------------------------|
G|---------------------0-0--------------------------------------------------|
D|--------------------------------------------------------------------------|
A|--------------------------------------------------------------------------|
E|--------------------------------------------------------------------------|

e|-3-3-0-----0-1--3-1--3-1--3-1--3-1--3-1--3-1--3-5-6-7---------------------|
B|---------3----------------------------------------------------------------|
G|--------------------------------------------------------------------------|
D|--------------------------------------------------------------------------|
A|--------------------------------------------------------------------------|
E|--------------------------------------------------------------------------|

e|-0-0---------------------0------------------------------------------------|
B|-----3-3-1---3-5-0---------3-1-1------------------------------------------|
G|---------------------0-0--------------------------------------------------|
D|--------------------------------------------------------------------------|
A|--------------------------------------------------------------------------|
E|--------------------------------------------------------------------------|
Tap to rate this tab
 
# A B C D E F G H I J K L M N O P Q R S T U V W X Y Z