Song name
# A B C D E F G H I J K L M N O P Q R S T U V W X Y Z

Misc Soundtrack - Peter Gunn Theme tab

e|--------4~-7-------------------------------------------|
b|--3-3-3------6---3-5--5/6--5/6--5/6--5/6--5-3----------|
g|---------------4------------------------------4-2--0-1-|
d|-------------------------------------------------------| x2
a|-------------------------------------------------------|
e|-------------------------------------------------------|


e|--------3-3--------------|
b|----3-5-----5-3---3------|
g|-4--------------4--------|x2
d|-------------------------|
a|---------------------2-2-|
e|---------------------0-0-|

e|--------3-3-----------------|
b|----3-5-----5-3--3----------|
g|-4--------------4---2-0-1---|
d|--------------------------4-|
a|----------------------------|
e|----------------------------|
Tap to rate this tab
 
# A B C D E F G H I J K L M N O P Q R S T U V W X Y Z