Song name
# A B C D E F G H I J K L M N O P Q R S T U V W X Y Z

Misc Soundtrack - Jeopardy Theme tab

Misc Soundtrack
Jeopardy Theme
Tuning: Standard
Transcribed by Soch H.


1st Part:
|-----------------------------------11---|
|----12---------12---------12----12------|
|-11----11---11----11---11----11---------|
|----------9-----------------------------|
|----------------------------------------|
|----------------------------------------|

|-9--------------------------------------------------------|
|---12-11-9-------12-----------12-------12--9--------------|
|-----------12-11----11-----11----11----------11--9-8------|
|-----------------------9-9---------------------------11-9-|
|----------------------------------------------------------|
|----------------------------------------------------------|

2nd Part:
|------------------------------------14---12-------|
|----15----------15---------15----15---------15-14-|
|-14----14----14----14---14----14------------------|
|----------12--------------------------------------|
|--------------------------------------------------|
|--------------------------------------------------|

|----------------------------------------------------------------|
|-12-------15-------------15------15--12-------------------------|
|----15-14----14-------14----14----------14-12-11----------------|
|----------------12-12----------------------------14-12-------12-|
|-------------------------------------------------------10s12----|
|----------------------------------------------------------------|
Tap to rate this tab
# A B C D E F G H I J K L M N O P Q R S T U V W X Y Z