Song name
# A B C D E F G H I J K L M N O P Q R S T U V W X Y Z

Misc Soundtrack - Transformers Theme tab

Transformers Theme


This is a tab for the song that plays about 3 times in the movie "Transformers"

. = Palm Mute


E------------------------------------------------------|
B------------------------------------------------------|
G------------------------------------------------------|
D------------------------------------------------------|
A----------------------------0-0-0-0-4-0-0-0-0-4-0-0-4-|
E-2-2-2-2-5-2-2-2-2-5-2-2-5----------------------------|
  . . . .   . . . .   . .    . . . .   . . . .   . .
E------------------------------------------------------|
B------------------------------------------------------|
G------------------------------------------------------|
D------------------------------------------------------|
A-4-4-4-4-7-4-4-4-4-7-4-4-7-2-2-2-2-6-2-2-2-2-6--------|
E------------------------------------------------5--4~-|
  . . . .   . . . .   . .   . . . .   . . . .

And just loop that and you're good to go
Tap to rate this tab
# A B C D E F G H I J K L M N O P Q R S T U V W X Y Z