Guitaretab - guitar tabs
Song name
# A B C D E F G H I J K L M N O P Q R S T U V W X Y Z

Misc Soundtrack - Pirates Of The Caribbean - Hes A Pirate tab

Pirates of the Caribbean Main Theme (a.k.a. "He's A Pirate")
by skijmpr
================================================================================

This tab is based off the original version by Hemo:
http://www.youtube.com/watch?v=_Z_lAjt-gMw

The tab follows the melody.  The rhythm just strums the chords.

Many thanks to Hemo for producing such a superb guitar version
of this song and for AlteSchuhsohle for creating an excellent
alternate version of this tab, which was a great help. If you
want to hear (roughly) what it sounds like, please visit the
link above. Also, if you have suggestions on how to make it 
better, please send me a message.Cheers!

~~~~~~~~~~~~~~~~~~~~~~~~~~~~~~~~~~~~~~~~~~~~~~~~~~~~~~~~~~~~~~~~~~~~~~~~~~~~~~~~

b = bend
" = palm mute
` = hold note
/ = slide up
\ = slide down
h = hammer on/off

.  = downbeat
^  = accent
N) = endings
:| = repeat

~~~~~~~~~~~~~~~~~~~~~~~~~~~~~~~~~~~~~~~~~~~~~~~~~~~~~~~~~~~~~~~~~~~~~~~~~~~~~~~~

Standard tuning

Intro [4/4] (palm mute every note except last measure)

E|--------------|--------------|---------|
B|--------------|--------------|---------|
G|--------------|--------------|-7``````-|
D|--------------|--------------|---------|
A|-5-55-55-5555-|-5-55-55-5555-|-5``````-|
E|--------------|--------------|---------|
   .  .  .  .     .  .  .  .     .  .  .

Verse [6/8]

         D      F        E      D          D      F        E      D
E|:----|---------------|-----------------|---------------|-----------------|
B|:----|------5-6-6-68-|-5-5-------------|------5-6-6-68-|-5-5-------------|
G|:--5-|-7-7-7---------|-----75-57b``--5-|-7-7-7---------|-----75-7b```--5-|
D|:-7--|---------------|--------------7--|---------------|--------------7--|
A|:----|---------------|-----------------|---------------|-----------------|
E|:----|---------------|-----------------|---------------|-----------------|
    .    . . .  . . .    . . .  .  .  .    . . .  . . .    . . .  .  .  .

   D      G        A#     D          F     D          E
                                                     1)
E|-------------5-|-6-6-5--5--------|-------5--------|--------------:|
B|------6-8-8-8--|------8--------5-|-6-6-8--------6-|-5-5-6--5b```-:|
G|-7-7-7---------|---------7b``-7--|--------7b``-7--|------7-------:|
D|---------------|-----------------|----------------|--------------:|
A|---------------|-----------------|----------------|--------------:|
E|---------------|-----------------|----------------|--------------:|
   . . .  . . .    . . .  .  .  .    . . . .  .  .    . . .  .  .
[ Tab from: http://www.guitaretab.com/m/misc-soundtrack/175083.html ]
   E      D       F       D              A#             
  2)             [3/8]   [6/8]
E|--------------|-------|-5```\1-------|-6```\1-------|------------|
B|-5-5-------/5-|-6-6-8-|--------3````-|--------------|-------6"---|
G|-----75-7-7---|-------|--------------|--------3````-|-----7``"---|
D|--------------|-------|--------------|--------------|/7``````"---|
A|--------------|-------|--------------|--------------|------------|
E|--------------|-------|--------------|--------------|------------|
   . . .  . ^ .   . . .   ^ . .  . . .   ^ . .  . . .   . . . ^ . .

E|--------------------|----------------|--------------------|----------------|
B|-10-10-10-11-10"----|-8-8-8-8-10"----|-10-10-10-11-10"----|-8b-\6\5------5-|
G|-10-10-10-10-10"----|-9-9-9-9-9-"----|-10-10-10-10-10"----|-9b-\7\6-7``-7--|
D|--------------------|----------------|--------------------|----------------|
A|--------------------|----------------|--------------------|----------------|
E|--------------------|----------------|--------------------|----------------|
   .  .  .  ^    .  .   . . . ^   .  .   .  .  .  ^    .  .   .  .  . . . .

E|------5-------|-----5--------|-5``----------|---------------|
B|-6``-8--8-6-5-|-6-8---8``-68-|-----86-5-6-5-|-----5-------5-|
G|--------------|--------------|--------------|-7``--5-7``-7--|
D|--------------|--------------|--------------|---------------|
A|--------------|--------------|--------------|---------------|
E|--------------|--------------|--------------|---------------|
   . . .  . . .   . . . . . .    . . .  . . .   . . .  . . .

E|------5-------|-5------------|-----5-6-----|----------------|
B|-6``-8--8-6-8-|---8-6------5-|-6-8-------8-|-6``-85---------|
G|--------------|-------7``-7--|---------7---|--------7``-9---|
D|--------------|--------------|-------------|-------------10-|
A|--------------|--------------|-------------|----------------|
E|--------------|--------------|-------------|----------------|
   . . .  . . .   . . . . . .    . . . . . .   . . .  . . .

                                                  1)
E|:-------------|------------------|-------------|-----------------:|
B|:-10b``-11b``-|-10-10-10-10-8b``-|-8b```-6b```-|-5``-6-5---------:|
G|:-10b``-10b``-|-10-10-10-10-9b``-|-9b```-7b```-|-6``-6-6--7`````-:|
D|:-------------|------------------|-------------|-----------------:|
A|:-------------|------------------|-------------|-----------------:|
E|:-------------|------------------|-------------|-----------------:|
    ^ . . ^ . .   .  .  .  ^  .  .   . . . . . .   .  .  .  .  .  .

  2)
E|-------------------|:-5b`"-----6b`"-----|-5-5-8-5\3``-|
B|-5``-6-5---------6-|:----"---6----"---6-|---6-6-6\5``-|
G|-6``-6-6--7```--7--|:----"--7-----"--7--|-------------|
D|---------------7---|:----"-7------"-7---|-------------|
A|-------------------|:-------------------|-------------|
E|-------------------|:-------------------|-------------|
   .  .  .  .  .  .     .  .  .  .  .  .    . . . . . .

                               1)          2)
E|--3b`````-|-\1b````-|-0-1-0-|----------:|---------||
B|--5b`````-|-\3b````-|-2-2-2-|-3b```--6-:|-3b`````-||
G|----------|---------|-------|-------7--:|---------||
D|----------|---------|-------|------7---:|---------||
A|----------|---------|-------|----------:|---------||
E|----------|---------|-------|----------:|---------||
    ^  .  .   ^  .  .   . . .   .  .  .     .  .  .
Related for Pirates Of The Caribbean - Hes A Pirate tab
Advertisement will be closed in 10 seconds