Song name
# A B C D E F G H I J K L M N O P Q R S T U V W X Y Z

Misc Soundtrack - Resident Evil Theme tab

Help us improve GuitareTab! Take a short survey!
Artist: Marilyn Manson
Song: Resident Evil Main Title Theme


I'm not sure about notes plays on D string but other is 100% correct.

Play it with the song then u'll catch the rhythm.

this part starts at 0:58
E|------------------------------------------------------|
B|----15-------15-------15----13-15----13-----------13--|
G|-------14----------14----14--------------14----14-----|
D|----------12----12----------------12--------12--------|
A|------------------------------------------------------|
E|------------------------------------------------------|
                                                             10 times
E|------------------------------------------------------|
B|----11------11------11----8-------8---10-------10-----|
G|-------10--------10----10-----------------------------|
D|----------8----8--------------8------------8----------|
A|------------------------------------------------------|
E|------------------------------------------------------|


Any suggestion just comment or mail me maciek40@yahoo.com


whiteplash
Related for Resident Evil Theme tab