Song name
# A B C D E F G H I J K L M N O P Q R S T U V W X Y Z

Misc Soundtrack - The 13th Warrior Theme tab

13th Warrior theme


Tabbed by Richard Sixsmith


e ------------------------------------------------------------|
B ------------------------------------------------------------|
G -----------2-----0-2-0-2-----------------2-----0-2-0-2-3-2--|
D ---0-2-3-0---3-0---------3-------0-2-3-0---3-0--------------|
A -0-------------------------3---0----------------------------|
E ------------------------------------------------------------|


e -------------------------------------------------------------|
B -1-3-1-3-1-3-1-----3------------------------------------0----|
G ---------------3-2---2-----------------2----------2-3-0---0--|
D -----------------------3-------0-2-3-0---3-0----0------------|
A -------------------------3---0----------------0--------------|
E -------------------------------------------------------------|


contac me at: richard_6myth@hotmail.co.uk
            : www.youtube.com/angryredcom
            : facebook - Richard Sixsmith
Tap to rate this tab
# A B C D E F G H I J K L M N O P Q R S T U V W X Y Z