Song name
# A B C D E F G H I J K L M N O P Q R S T U V W X Y Z

Misc Soundtrack - One Missed Call Japanese - Melody Of Death tab

-------------------------------------------------------------------------------
			     One Missed Call Ringtone - Melody of Death
-------------------------------------------------------------------------------
Tabbed by:Daniel Mechen


Tuning:Dropped 1 Step or How ever you like.

e|---------------------------------------------------------------------------|
B|--------7-----7-----7-----7--10--8--7--5---8--7--5--3--2-----8--7--5--3----|
G|------7--7--7--7--7--7--7--------------------------------------------------|
D|----9-----8-----9-----8------------------------------------9---------------|
A|---------------------------------------------------------------------------|
E|---------------------------------------------------------------------------|

e|------7----------7----------7--------------7-------------------------------|
B|----------9----------9----------9--------------9---------------------------|
G|---8----------8-----------8-----------8------------------------------------|
D|---------------------------------------------------------------------------|
A|---------------------------------------------------------------------------|
E|---------------------------------------------------------------------------|

e|---6---7---9---7---6---6---6---4---6---7---6---4---6-----------------------|
B|---------------------------------------------------------------------------|
G|---------------------------------------------------------------------------|
D|---------------------------------------------------------------------------|
A|---------------------------------------------------------------------------|
E|---------------------------------------------------------------------------|





===============================================================================
Tap to rate this tab
# A B C D E F G H I J K L M N O P Q R S T U V W X Y Z