Song name
# A B C D E F G H I J K L M N O P Q R S T U V W X Y Z

Misc Soundtrack - Rock On - Zehreelay tab

PTL


                                                         Zehreelay

                                   From the Hindi movie “Rock On!!”

By Sanjeev George and Thomas George
Contact at SanjeevGeorge123@yahoo.co.in

Tuning: standard

Riff A
W/distortion
e|-----------------------------------------|
B|-----------------------------------------|
G|-----------------------------------------|
D|--2222---------------2222----------------|
A|--2222---------------2222----------------|
E|--0000-1-0-2-0-3-3---0000-1-0-2-0-3-0----|

Riff B
e|---------------------------------------------|
B|---------------------------------------------|
G|---------------------------------------------|
D|---------------------------------------------|
A|---8----5----8----5----8----5----999999999---|
E|---6----3----6----3----6----3----777777777---|

Riff C
e|-------------------------------------------------------|
B|-------------------------------------------------------|
G|---9999-10---11---12-12v---9999-10---11---12—9v--------|
D|---9999----9----9----------9999----9----9--------------|
A|-------------------------------------------------------|
E|-------------------------------------------------------|


Intro   : Riff A x 2

Verse 1 : Riff A x 8 
          Riff B

Chorus  : Riff A x 8

Verse 2 : Riff A x 8
          Riff B
Chorus  : Riff A x 8 

Solo

Verse 3 : Riff A x 8 
          Riff B


Chorus  : Riff A x 8

End     : Riff C x 4

Please rate. Thank you
Tap to rate this tab
# A B C D E F G H I J K L M N O P Q R S T U V W X Y Z