Guitaretab - guitar tabs
Song name
# A B C D E F G H I J K L M N O P Q R S T U V W X Y Z

Misc Soundtrack - Camp Rock - This Is Me tab

Highlighted       Show chord diagrams
-------------------------------------------------------------------------------
			     THIS IS ME  CAMP ROCK
-------------------------------------------------------------------------------
Tabbed by: rakizta_ralph
Email: fast_break20@yahoo.com.ph (friendster.com)

Tuning: Standard


INTRO:

e|------5----------3-2-----0---------0-----|
B|----3---3------3-------3---3-----3---3---|
G|--4----------4-------2---------4---------|
D|-----------5-----------------5-----------|  (5x)
A|-----------------------------------------|
E|-----------------------------------------|

Chords: Bm-G-D-A    Start the rhythm when the intro is in the (4x)


       Bm               G
Always been the kind of girl
      D         A
that hid in my face
      Bm                G
So afraid to tell the world
  D               A
What Ive got to say
       Bm         G
But I have this dream
D               A
Right Inside of me
           Bm     G
I'm gonna let it show
       D      A       G
It's time to let you know
             A
to let you know
[ Tab from: http://www.guitaretab.com/m/misc-soundtrack/177917.html ]
CHORUS:
         G            D
This is real, this is me 
      A                                  G
I'm exactly where i'm supposed to be Now
                D
gonna let the light 
  A
Shine On me
        G           D
Now i found, who i am 
           A
there's no way to hold it in
G               D           A
No more hiding who i wanna be
       Play the INTRO
This is me

***The chords are the same on the next line
***Try to figure it out =)

This is the adlib part of the song

e|----------------------------------------|
B|--/7-8-10-8-7-7---7-8-10-10/12-12-12\---|
G|----------------7-----------------------|
D|----------------------------------------|
A|----------------------------------------|
E|----------------------------------------|

e|---------------------12----12----12--|
B|--/7-8-10-8-7-78/10----10----10-----|
G|-------------------------------------|
D|-------------------------------------|
A|-------------------------------------|
E|-------------------------------------|


| /  slide up
| \  slide down
| h  hammer-on
| p  pull-off
| ~  vibrato
| +  harmonic
| x  Mute note
===============================================================================

Related for Camp Rock - This Is Me tab