Song name
# A B C D E F G H I J K L M N O P Q R S T U V W X Y Z

Misc Soundtrack - Slumdog Millionaire - Latikas Theme tab

-----------------------------------------------
LATIKA'S THEME - A.R. Rahman
-----------------------------------------------

Tabbed by:  Cindy

Tuning:  Standard

Repeat the following throughout the song (until ending):

  C           Am          F           G
e|----0-----------0-----------1---------------|
B|1-1---1-----1-1---1-----1-1---1-----0-0-0-0-|
G|-0-0-0-0-----2-2-2-2-----2-2-2-2-----0-0-0-0|
D|------------------------3-------------------|
A|3-----------0-------------------------------|
E|------------------------------------3-------|

Ending:

  C           Am           F          C
e|----0-----------0-----------1---------------|
B|1-1---1-----1-1---1-----1-1---1-----1-1-1-1-|
G|-0-0-0-0-----2-2-2-2-----2-2-2-2-----0-0-0-0|
D|------------------------3-------------------|
A|3-----------0-----------------------3-------|
E|--------------------------------------------|
Tap to rate this tab
# A B C D E F G H I J K L M N O P Q R S T U V W X Y Z