Song name
# A B C D E F G H I J K L M N O P Q R S T U V W X Y Z

Misc Soundtrack - Yes Man - Munchausen By Proxy tab

I'm sure that this tab is 99% correct, and 100% easy, if not, please message me.

-------------------------------------------------------------------------------
		Song:Yes Man - Munchausen By Proxy(soundtrack)
-------------------------------------------------------------------------------
Tabbed by:dominiccinimod
Email:dominic.fishbill@gmail.com

Tuning: drop D
Intro/Verse
Play this 3 Times!
e|----------------------------------------------------------------------------------|
B|----------------------------------------------------------------------------------|
G|----------------------------------------------------------------------------------|
D|----3----3----3----3------8----8----8----8-----6----6----6----6----6----6---6----6|
A|----------------------------------------------------------------------------------|
D|--3----3----3----3------8----8----8----8-----6----6----6----6----6----6----6----6-|

Chorus
Play this twice!
e|---------------------------------------------------------------------------|
B|---------------------------------------------------------------------------|
G|---------------------------------------------------------------------------|
D|--3--3------6--6------8--8-------11--11------------------------------------|
A|--3--3------6--6------8--8-------11--11------------------------------------|
D|--3--3------6--6------8--8-------11--11------------------------------------|

After the chorus, play the intro 5 more times into the end.

**There's also some sorta synthesizer that plays after the chorus when you play the 
This is purely optional; try getting a second guitarist for this.**
e|---------------------------------------------------------------------------|
B|---------------------------------------------------------------------------|
G|---------------------------------------------------------------------------|
D|--3~---------8~-----------6~-----------------------------------------------|
A|---------------------------------------------------------------------------|
D|---------------------------------------------------------------------------|


Fin~~~
Hope You like it!
Tap to rate this tab
 
# A B C D E F G H I J K L M N O P Q R S T U V W X Y Z