Song name
# A B C D E F G H I J K L M N O P Q R S T U V W X Y Z

Misc Soundtrack - The Fresh Prince Of Bel-air Theme tab

I was watching The Fresh Prince Of Bel Air one night, and thought about the song. I
if I could figure it out on my acoustic (still sounds good on electric), and I think 
it
near perfect. And although it is short, very short, but very repetitive, I personally 
it is fun to play. So, without further ado, here it is…

BACKGROUND GUITAR
E:-----0-3-3-2-0----0-3-3-2-0-----0-3-3-2-0---------3-5-|
A:----------------------------------------------3-5-----|
D:------------------------------------------------------|
G:------------------------------------------------------|
B:------------------------------------------------------|
E:------------------------------------------------------|
(REPEAT THROUGHOUT SONG)

LEAD GUITAR
E:-----5---7----------5—3—0-----------|
A:--------------------------3-5-------|
D:------------------------------------|
G:------------------------------------|
B:------------------------------------|
E:------------------------------------|
(PLAY AFTER BACKGROUND FINISHES)

Note: Before playing, to ensure that it is right, I suggest that you listen to the song
or twice first.

Have fun!
Tap to rate this tab
# A B C D E F G H I J K L M N O P Q R S T U V W X Y Z