Guitaretab - guitar tabs
Song name
# A B C D E F G H I J K L M N O P Q R S T U V W X Y Z

Misc Soundtrack - Twilight - Bellas Lullaby tab

 Pretty easy song no capo. 1st tab nice comments only plzz i will accept corrections and 
the tab according.

e|---3--5--7---------------------------------------------|
B|------------3--3--1--1--0--0---------------------------|
G|------------------------------2--------0--0------------|
D|---------------------------------2--2------------------|
A|-------------------------------------------------------|
E|-------------------------------------------------------|


e|-----------------------------------0--0----------------|
B|--3--3--1--1-----------------0--0----------------------|
G|--------------2--------0--0----------------------------|
D|-----------------2--2----------------------------------|
A|-------------------------------------------------------|
E|-------------------------------------------------------|
[ Tab from: http://www.guitaretab.com/m/misc-soundtrack/184501.html ]
e|--2-----------------------------------0--0--4--4--4--4-|
B|-----3--3--1--1--0--0-----------1--1-------------------|
G|-----------------------2--0--0-------------------------|
D|-------------------------------------------------------|
A|-------------------------------------------------------|
E|-------------------------------------------------------|

e|--3--0--0-----------0--0--3--3--7--7--10--10-----------|
B|-----------3--0----------------------------------------|
G|-----------------2-------------------------------------|
D|-------------------------------------------------------|
A|-------------------------------------------------------|
E|-------------------------------------------------------|

e|17--17--15--12--12--10--7--5---------------------------|
B|-------------------------------------------------------|
G|-------------------------------------------------------|
D|-------------------------------------------------------|
A|-------------------------------------------------------|
E|-------------------------------------------------------|

That's it u can repeat as much as u want and then to end it play 3,5,7 with more room between.
Related for Twilight - Bellas Lullaby tab
Advertisement will be closed in 10 seconds