Song name
# A B C D E F G H I J K L M N O P Q R S T U V W X Y Z

Misc Soundtrack - Soul Men - Do Your Thing tab

Help us improve GuitareTab! Take a short survey!
Soul Men
Bernie Mac & Samuel L Jackson

Do your Thing

Sad adaptation to guitar, but it got me through. Its the bass line as best as I can tell.
|---------------------------------------------------------|
|---------------------------------------------------------|
|---------------------------------------------------------|
|---------------------------------------------------------|
|------------0---0-------------0---0----------------------|
|-5-5--0-0h3---3-----5-5-0-0h3---3------------------------|
       ^  v

If music makes you move
And you can really groove
Groove on, groove on
If you feel like you wanna make love
Under the stars above
Love on, love on
If there's something that you wanna say
And Talking is the only way
Rap on, rap on

Cause whatever your gonna do         You gotta do your thing
|------x---------------x----------------------------------------------------|
|------x---------------x----------------------------------------------------|
|------x---------------x----------------------------------------------------|
|------2---------------2----------------------------------------------------|
|------3---------------2----------------------------0---0-------------0---0-|
|------3---------------0-----------------5-5--0-0h3---3-----5-5-0-0h3---3---|
                                                                                           ^  v


If you feel like you wanna swing
(No damn clue what is said under the crowd screaming) 
Scream on, scream on

If you feel like you wanna sing
Cause singing is your thing
Sing on, sing on

If you wanna make love all night
Cause you feel its right
Right on, right on

Cause whatever your gonna do
You gotta do your thing
Related for Soul Men - Do Your Thing tab