Song name
# A B C D E F G H I J K L M N O P Q R S T U V W X Y Z

Misc Soundtrack - Gladiator Theme tab

E|----------17----------------------------------------|
B|--15--19----------------------------17--------------|
G|--------------16--14--13~~--16--18------14--13~-11~~|
D|----------------------------------------------------|
A|----------------------------------------------------|
E|----------------------------------------------------|



E|----------17-------------------------------|
B|--15--19-----------------------------------|
G|--------------16--14--13~-13-13/14\13--11~~|
D|-------------------------------------------|
A|-------------------------------------------|
E|-------------------------------------------|

E major scale

~~ vibrato
/\ slide
Tap to rate this tab
 
# A B C D E F G H I J K L M N O P Q R S T U V W X Y Z