Song name
# A B C D E F G H I J K L M N O P Q R S T U V W X Y Z

Misc Soundtrack - Ghettysburg Theme tab

e|------------------------------------------------|
B|------------------------------1-----------------|
G|---0-----1------0----0-------------3-----1--0---|
D|-----1--------3---------3--1-----------1--------|
A|1------1----------------------------------------|
E|------------------------------------------------|

e|----------------------------------------------------|
B|---1----4---3-4-3------------1--1------------3--1---|
G|--0-----------------------------3---1---------------|
D|-1-------------------1-----------------1--------3---|
A|----------------------------------------------------|
E|----------------------------------------------------|


This is from the movie gehttysburg. if you have any questions email me 
Tap to rate this tab
# A B C D E F G H I J K L M N O P Q R S T U V W X Y Z