Song name
# A B C D E F G H I J K L M N O P Q R S T U V W X Y Z

Misc Soundtrack - Godfather Theme Acoustic tab

----------------------------------------------------------------------------
			     Godfather- The Movie-Theme Tune
----------------------------------------------------------------------------
Tabbed by:lee
Email:leejones321@msn.com

Please rate this tab as its my first one and by the sounds of it it pretty good lol. 
This is beautiful to play once uve got the hang of it.
Enjoy!

Tuning:eBGDAE
INTRO
e|---------------2--0--3--0---2--0-----------------------------------------------------------------|
B|---5/8--8~-----0------------1----1--3--0------------0--------------------------------------------|
G|-4------------------------------------------------0----------------------------------------------|
D|-----------------------------------------------2-------------------------------------------------|
A|----------------------------0---------------2----------------------------------------------------|
E|---------------0-----------------------0--3------------------------------------------------------|

e|---------------2--0--3--0--2--0------------------------------------------------0-----------------|
B|---5/8--8~-----0-----------1-----0-------------------1--4/7----------------------0---0---------3-|
G|-4----------------------------------3--2-----------2------------5-------5--8-------0---------0---|
D|----------------------------------------------2---------------7-------7--------------------2-----|
A|---------------------------0-------------0--3---0-----------0-------0----------------------------|
E|---------------0--------------------------------------------------------------0---------0--------|

e|---------------------------------------------------------------------------|
B|----1--0--3--1--1--0--0------------0---------------------------------------|
G|---0-----------------------------0-----------------------------------------|  repeat
D|--2-------------1-------1--2---2-------------------------------------------|   X2
A|-2--------------------2------2---------------------------------------------|
E|---------------------------0-----------------------------------------------|
VERSE
e|--------------------2----0-----------------------------------------------------|
B|--5--5--4--3----3----------1--0-------0--0--2--0-----1------1----1-----0-----0-|
G|--------------2---2----2------------0---------------2-----2-----2---3------2---|
D|-----------0--------0-------------0----------------3----3-----3----------1-----|
A|--------------------------------2-----------------3--------------------2------2|
E|------------------------------3------------------------------------------------|



REPEAT INTRO AS OUTTRO(only once)


| /  slide up
| \  slide down
| h  hammer-on
| p  pull-off
| ~  vibrato
| +  harmonic
| x  Mute note
===============================================================================
Tap to rate this tab
# A B C D E F G H I J K L M N O P Q R S T U V W X Y Z