Song name
# A B C D E F G H I J K L M N O P Q R S T U V W X Y Z

Misc Soundtrack - Binary Sunset tab

This is just a section of John Williams' "Binary Sunset." Feel free to look
 it up on YouTube to get the timing. I based these tabs off of the 
YouTube video: "Star Wars Binary Sunset" posted by EggMaster260888.
  I also added a video of me playing the song:  "Binary Sunset - Guitar"


/ = Slide 
~~ = Let Ring


|----------3---5---6-8-6-----|------3---5--6-----6--3--8/10--8~~--|
|--3~~--3------------------3-|--3-------------3-------------------|
|----------------------------|------------------------------------|
|----------------------------|------------------------------------|
|----------------------------|------------------------------------|
|----------------------------|------------------------------------|

|-----3--5--6--3--10--3--5/15~--3--|--6--5--3--10--6--3--------|
|--3-------------------------------|---------------------3~~~--| (end) 
|----------------------------------|---------------------------|
|----------------------------------|---------------------------| 
|----------------------------------|---------------------------| 
|----------------------------------|---------------------------|

 Feel free to wrap up this section with:
|------3~~-|
|---3------| 
|----------|
|----------|
|----------| 
|----------| 

This just the raw and basic version. Have fun with these tabs!
Add in additional slides, hammer-ons, pull-offs, or even bends.

 May the Force be with You
Tap to rate this tab
# A B C D E F G H I J K L M N O P Q R S T U V W X Y Z