Song name
# A B C D E F G H I J K L M N O P Q R S T U V W X Y Z

Misc Soundtrack - Moulin Rouge - El Tango De Roxanne tab

"El Tango De Roxanne"

Tabbed by: Andres_Cuevas

Email: andy_cuevas907@yahoo.com

LET THE BASS NOTES RING.
This song is arranged by Craig Armstrong and was made for the film "Moulin Rouge" as a 
of The Police's "Roxanne."
Yes this is my original tab and my first tab, and i arranged it by ear, enjoy..

Violin #1

      **(violin #2 begins to play along here in the second time round- after all of what 
wrote down for the violin #2 is finished)

e|---------------------------------------------------------------------------|
B|-2-/4--5-5-4----4-/5-7-7-5-4--4--**5-5-4--5-5-4----------------------------|
G|----4----------------------0--3------0------3----------Play-x2-------------|
D|---------------------------------------------------------------------------|
A|-----------6-------7---9-----------7---------------------------------------|
E|----4-------------------------3-------------3------------------------------|

Violin #2

                                            (very fast----------)

e|--11--10--11---11--10--11-/6----6-/4h-3---3h-4h-6---4h6---7h6h4-3--4-------|
B|---------------------------------------------------------------------------|
G|---------------------------------------------------------------------------|
D|---------------------------------------------------------------------------|
A|---------------------------------------------------------------------------|
E|---------------------------------------------------------------------------|

e|---------------------------------------------------------------------------|
B|--4--4h-5--4--4h-5--4--4h-0------------------------------------------------|
G|-----0--------3--------4---------------------------------------------------|
D|---------------------------------------------------------------------------|
A|---------------------------------------------------------------------------|
E|---------------------------------------------------------------------------|


I will do the rest, just give me some time!
-regards
Tap to rate this tab
# A B C D E F G H I J K L M N O P Q R S T U V W X Y Z