Song name
# A B C D E F G H I J K L M N O P Q R S T U V W X Y Z

Misc Soundtrack - Oldboy Movie Theme tab

                              
The Last Waltz                                  
from the movie 'Oldboy'




     E  E  E  E  E  E     Q    Q    Q       E  E  E  E  E  E   
E||--------------------|-----------------|--------------------|
B||--3--1--3-----3--1--|--3----1----1----|--------------------|
G||--------3--2--3-----|-------2----2----|--3--2--0-----0--2--|
D||--------------------|-----------------|--------1--3--1-----|
A||--------------------|-----------------|--------------------|
E||--------------------|-----------------|--------------------|


  Q    Q    Q       E  E  E  E  E  E     Q    Q    Q       H        E  E   
-----------------|--------------------|-----------------|-----------------|
-----------------|--3--1--3-----3--1--|--3----1---------|-----------------|
-------3---------|--------3--2--3-----|-------2----2----|--0--------L-----|
--3----3----0----|--------------------|------------3----|--------------0--|
------------0----|--------------------|-----------------|-----------------|
-----------------|--------------------|-----------------|-----------------|


  Q    Q    Q       E  E  E  E  E  E     Q    E  E  Q       E  E  E  E  E  E   
-----------------|--------------------|-------------5----|--3--1-----------1--|
-------1----1----|--3--1--3-----3--1--|--3----1----------|--------4--3--4-----|
--0----2----2----|--------3--2--3-----|-------2--2-------|--------3-----3-----|
-----------------|--------------------|------------------|--------------------|
-----------------|--------------------|------------------|--------------------|
-----------------|--------------------|------------------|--------------------|


  Q    Q     Q        E  E  E  E  E  E     Q    Q    Q       H        E  E   
------------10----|--10--8--6--5--6--8--|--5----L----1----|--3--------L-----|
--3----L----------|---------3-----3-----|-------1---------|--------------3--|
--3----3----------|---------------------|-------2---------|-----------------|
-------3----------|---------------------|-----------------|-----------------|
------------------|---------------------|-----------------|-----------------|
------------------|---------------------|-----------------|-----------------|


  Q    Q    Q       Q    Q    Q       Q    Q    Q       Q    Q    Q     
--3----L----5----|--3--------------|--L--------------|-----------------|
--3----1---------|-------3----3----|-------1----L----|-------3----3----|
-------2---------|--0----3----3----|-------2----L----|--0----3----3----|
-----------------|-----------------|--0--------------|-----------------|
-----------------|-----------------|-----------------|-----------------|
-----------------|-----------------|-----------------|-----------------|


  Q    Q    Q       Q    E  E  E  E     Q    Q    Q       Q    E  E  E  E   
-----------------|-------------------|-----------------|-------------------|
-------1----L----|-------------------|-----------------|-------------------|
-------2----L----|--0----3-----3-----|-------3----0----|-------3-----3-----|
--0--------------|-------1--3--1--0--|-------1----1----|--3----3--1--0-----|
-----------------|-------------------|--3----L---------|----------------3--|
-----------------|-------------------|-----------------|-------------------|


  Q    Q    Q       Q    E  E  Q       Q    Q    E  E     Q    E  E  E  E   
-----------------|------------------|------------------|-------------------|
-----------------|-------1--L--L----|--1---------------|-------3-----3-----|
-------3----3----|-------0--L--L----|--0---------------|-------3-----3-----|
-------3----3----|--1----L----------|---------------1--|--0----L-----------|
--1----L---------|----------3-------|--3---------3-----|----------3--1--0--|
-----------------|-------------3----|-------3----------|-------------------|


  Q    Q    Q       Q    E  E  E  E     Q    Q    E  E     Q    E  E  E  E   
------------3----|--3----L--1--------|---------------8--|--6----L--5--6--3--|
-------3---------|-------------4--3--|--1----L----4-----|-------3-----3-----|
-------3----0----|-------3-----3-----|-------3----3-----|-------3-----3-----|
-----------------|-------1-----------|-------1----------|-------------------|
-----------------|-------------------|------------------|-------------------|
--3----L---------|-------------------|------------------|-------------------|


  Q    Q    E  E     Q    E  E  E  E     Q    Q    E  E     Q    Q    Q     
---------------6--|--4-------3--4-----|---------------4--|--3----L----L----|
--3----L----3-----|-------4-----4--4--|--1----4----4-----|-------3----L----|
-------3----3-----|-------1-----1-----|-------1----1-----|-------2----L----|
------------------|-------------------|------------------|-----------------|
------------------|-------------------|------------------|-----------------|
------------------|-------------------|------------------|-----------------|


  Q    Q    Q       E  E  E  E  E  E     Q    Q    Q       E  E  E  E  E  E   
-----------------|--------------------|-----------------|--------------------|
--3----1----L----|--------3-----3--1--|--3----1----1----|-----------------1--|
-------2----L----|--0-----0--2--3-----|-------2----2----|--0-----0--2--3-----|
-------0----L----|-----4--------------|-----------------|-----4--1-----1-----|
-----------------|--------------------|-----------------|--------------------|
-----------------|--------------------|-----------------|--------------------|


  Q    Q    Q       E  E  E  E  E  E     Q    Q    Q       H        E  E   
-----------------|--------------------|-----------------|-----------------|
-----------------|--------3-----3--1--|--3----1---------|-----------------|
--2----3---------|--0-----0--2--3-----|-------2----2----|--0--------L-----|
-------3----3----|-----4--------------|------------3----|--------------0--|
------------0----|--------------------|-----------------|-----------------|
-----------------|--------------------|-----------------|-----------------|


  Q    Q    Q       E  E  E  E  E  E     Q    E  E  Q       E  E  E  E  E  E   
-----------------|--------------------|-------------5----|--6--5--3--1--3--5--|
-------1----1----|--------3-----3--1--|--3----1----------|--------------------|
--0----2----2----|--3--2--0--2--3-----|-------2--2-------|--------3-----3-----|
-----------------|--------------------|------------------|--------------------|
-----------------|--------------------|------------------|--------------------|
-----------------|--------------------|------------------|--------------------|


  Q    Q     Q        E  E  E  E  E  E     Q    Q    Q       H        E  E   
--1----L----10----|--10--8--6--5--6--8--|--5----L----1----|--3--------L-----|
------------------|---------3-----3-----|-------1----L----|--------------3--|
-------3----------|---------------------|-------2---------|--0--------L-----|
-------3----------|---------------------|-----------------|--------------0--|
------------------|---------------------|-----------------|-----------------|
------------------|---------------------|-----------------|-----------------|


  Q    Q    Q       H.              Q    Q    Q       Q    Q    Q     
--3----L----5----|--3------------|--L--------------|-----------------|
-------1---------|---------------|-------1----L----|-------3----3----|
-------2---------|--0------------|-------2----L----|--0----3----3----|
-----------------|---------------|--0--------------|-----------------|
-----------------|---------------|-----------------|-----------------|
-----------------|---------------|-----------------|-----------------|


  Q    Q    Q       Q    Q    Q       Q    Q    Q         E  E  E  E  E  E   
-----------------|-----------------|------------------||--------------------|
-------1----L----|-------3----3----|-------1----L-----||--------3-----3--1--|
-------2----L----|--0----3----3----|-------2----L----*||--0-----0--2--3-----|
--0--------------|-----------------|--0--------------*||-----4--------------|
-----------------|-----------------|------------------||--------------------|
-----------------|-----------------|------------------||--------------------|


  Q    Q    Q       E  E  E  E  E  E     Q    Q    Q       E  E  E  E  E  E   
-----------------|--------------------|-----------------|--------------------|
--3----1----1----|-----------------1--|-----------------|--------3-----3--1--|
-------2----2----|--0-----0--2--3-----|--2----3---------|--0-----0--2--3-----|
-----------------|-----4--1-----1-----|-------3----3----|-----4--------------|
-----------------|--------------------|------------0----|--------------------|
-----------------|--------------------|-----------------|--------------------|


  Q    Q    Q       H        E  E     Q    Q    Q       E  E  E  E  E  E   
-----------------|-----------------|-----------------|--------------------|
--3----1---------|-----------------|-------1----1----|--------3-----3--1--|
-------2----2----|--0--------L-----|--0----2----2----|--3--2--0--2--3-----|
------------3----|--------------0--|-----------------|--------------------|
-----------------|-----------------|-----------------|--------------------|
-----------------|-----------------|-----------------|--------------------|


  Q    E  E  Q       E  E  E  E  E  E     Q    Q     Q     
-------------5----|--6--5--3--1--3--5--|--1----L----10----|
--3----1----------|--------------------|------------------|
-------2--2-------|--------3-----3-----|-------3----------|
------------------|--------------------|-------3----------|
------------------|--------------------|------------------|
------------------|--------------------|------------------|


   E  E  E  E  E  E     Q    Q    Q       Q    Q    E  E     Q    Q    Q     
--10--8--6--5--6--8--|--5----L----1----|--3---------L-----|--3----L----5----|
---------3-----3-----|-------1----1----|--3----1----L--3--|--3----1---------|
---------------------|-------2---------|-------0----L-----|-------2---------|
---------------------|-----------------|------------------|-----------------|
---------------------|-----------------|------------------|-----------------|
---------------------|-----------------|------------------|-----------------|


  H.              H        Q       H.              H.            
--3------------|--L-------------|---------------|---------------|
---------------|----------------|---------------|---------------|
--3------------|--L-------------|---------------|---------------|
---------------|----------------|---------------|---------------|
---------------|----------------|---------------|---------------|
---------------|----------------|---------------|---------------|


  H.                             
---------------|---------------||
---------------|---------------||
---------------|---------------||
---------------|---------------||
---------------|---------------||
---------------|---------------||




Duration Legend
---------------
W - whole
H - half
Q - quarter
E - 8th
S - 16th
T - 32nd
X - 64th
. - note dotted
|-n-|  - n-tuplets


Tablature Legend
----------------
L - tied note
x - dead note
g - grace note
(n) - ghost note
> - accentuded note
NH - natural harmonic
AH - artificial harmonic
TH - tapped harmonic
SH - semi harmonic
PH - pitch harmonic
h - hammer on
p - pull off
b - bend
br - bendRelease
pb - preBend
pbr - preBendRelease
brb - bendReleaseBend
\n/ - tremolo bar dip
\n - tremolo bar dive
-/n - tremolo bar Release up
/n\ - tremolo bar inverted dip
/n - tremolo bar return
-\n - tremolo bar Release down
S - shift slide
s - legato slide
/ -  slide into from below or out of upwards
\ -  slide into from above or out of downwards
~ - vibrato
W - wide vibrato
tr - trill
TP - tremolo picking
T - tapping
S - slap
P - pop
< - fade in
^ - brush up
v - brush down
Tap to rate this tab
 
# A B C D E F G H I J K L M N O P Q R S T U V W X Y Z